  0
SECTION
  2
HEADER
  9
$ACADVER
  1
AC1009
  9
$INSBASE
 10
0.0
 20
0.0
 30
0.0
  9
$EXTMIN
 10
0.0
 20
0.0
 30
0.0
  9
$EXTMAX
 10
9875.0
 20
6825.0
 30
0.0
  9
$LIMMIN
 10
0.0
 20
0.0
  9
$LIMMAX
 10
9875.0
 20
6825.0
  9
$ORTHOMODE
 70
     0
  9
$REGENMODE
 70
     1
  9
$FILLMODE
 70
     1
  9
$QTEXTMODE
 70
     0
  9
$MIRRTEXT
 70
     0
  9
$DRAGMODE
 70
     2
  9
$LTSCALE
 40
125.0
  9
$OSMODE
 70
    33
  9
$ATTMODE
 70
     1
  9
$TEXTSIZE
 40
150.0
  9
$TRACEWID
 40
0.05
  9
$TEXTSTYLE
  7
K
  9
$CLAYER
  8
TEXT
  9
$CELTYPE
  6
BYLAYER
  9
$CECOLOR
 62
   256
  9
$DIMSCALE
 40
25.0
  9
$DIMASZ
 40
1.5
  9
$DIMEXO
 40
1.0
  9
$DIMDLI
 40
6.0
  9
$DIMRND
 40
0.0
  9
$DIMDLE
 40
0.0
  9
$DIMEXE
 40
1.0
  9
$DIMTP
 40
495.0
  9
$DIMTM
 40
0.0
  9
$DIMTXT
 40
3.0
  9
$DIMCEN
 40
0.0
  9
$DIMTSZ
 40
0.0
  9
$DIMTOL
 70
     0
  9
$DIMLIM
 70
     0
  9
$DIMTIH
 70
     0
  9
$DIMTOH
 70
     0
  9
$DIMSE1
 70
     0
  9
$DIMSE2
 70
     0
  9
$DIMTAD
 70
     1
  9
$DIMZIN
 70
     8
  9
$DIMBLK
  1
ARROW
  9
$DIMASO
 70
     0
  9
$DIMSHO
 70
     0
  9
$DIMPOST
  1

  9
$DIMAPOST
  1

  9
$DIMALT
 70
     0
  9
$DIMALTD
 70
     2
  9
$DIMALTF
 40
25.4
  9
$DIMLFAC
 40
1.0
  9
$DIMTOFL
 70
     1
  9
$DIMTVP
 40
0.0
  9
$DIMTIX
 70
     1
  9
$DIMSOXD
 70
     0
  9
$DIMSAH
 70
     0
  9
$DIMBLK1
  1

  9
$DIMBLK2
  1

  9
$DIMSTYLE
  2
*UNNAMED
  9
$DIMCLRD
 70
     0
  9
$DIMCLRE
 70
     0
  9
$DIMCLRT
 70
     0
  9
$DIMTFAC
 40
1.0
  9
$DIMGAP
 40
0.09
  9
$LUNITS
 70
     2
  9
$LUPREC
 70
     2
  9
$AXISMODE
 70
     1
  9
$AXISUNIT
 10
100.0
 20
100.0
  9
$SKETCHINC
 40
0.1
  9
$FILLETRAD
 40
10.0
  9
$AUNITS
 70
     0
  9
$AUPREC
 70
     2
  9
$MENU
  1
d:stdgx5
  9
$ELEVATION
 40
0.0
  9
$PELEVATION
 40
0.0
  9
$THICKNESS
 40
0.0
  9
$LIMCHECK
 70
     0
  9
$BLIPMODE
 70
     1
  9
$CHAMFERA
 40
0.0
  9
$CHAMFERB
 40
0.0
  9
$SKPOLY
 70
     0
  9
$TDCREATE
 40
2449293.366585648
  9
$TDUPDATE
 40
2450245.663125000
  9
$TDINDWG
 40
0.2010185185
  9
$TDUSRTIMER
 40
0.2010185185
  9
$USRTIMER
 70
     1
  9
$ANGBASE
 50
0.0
  9
$ANGDIR
 70
     0
  9
$PDMODE
 70
     0
  9
$PDSIZE
 40
0.0
  9
$PLINEWID
 40
0.0
  9
$COORDS
 70
     2
  9
$SPLFRAME
 70
     0
  9
$SPLINETYPE
 70
     6
  9
$SPLINESEGS
 70
     8
  9
$ATTDIA
 70
     0
  9
$ATTREQ
 70
     1
  9
$HANDLING
 70
     0
  9
$HANDSEED
  5
0
  9
$SURFTAB1
 70
     6
  9
$SURFTAB2
 70
     6
  9
$SURFTYPE
 70
     6
  9
$SURFU
 70
     6
  9
$SURFV
 70
     6
  9
$UCSNAME
  2

  9
$UCSORG
 10
0.0
 20
0.0
 30
0.0
  9
$UCSXDIR
 10
1.0
 20
0.0
 30
0.0
  9
$UCSYDIR
 10
0.0
 20
1.0
 30
0.0
  9
$PUCSNAME
  2

  9
$PUCSORG
 10
0.0
 20
0.0
 30
0.0
  9
$PUCSXDIR
 10
1.0
 20
0.0
 30
0.0
  9
$PUCSYDIR
 10
0.0
 20
1.0
 30
0.0
  9
$USERI1
 70
     3
  9
$USERI2
 70
    33
  9
$USERI3
 70
     0
  9
$USERI4
 70
     1
  9
$USERI5
 70
     0
  9
$USERR1
 40
25.0
  9
$USERR2
 40
3.0
  9
$USERR3
 40
3.0
  9
$USERR4
 40
1.5
  9
$USERR5
 40
10.0
  9
$WORLDVIEW
 70
     1
  9
$SHADEDGE
 70
     3
  9
$SHADEDIF
 70
    70
  9
$TILEMODE
 70
     1
  9
$MAXACTVP
 70
    16
  9
$PINSBASE
 10
0.0
 20
0.0
 30
0.0
  9
$PLIMCHECK
 70
     0
  9
$PEXTMIN
 10
1.000000E+20
 20
1.000000E+20
 30
1.000000E+20
  9
$PEXTMAX
 10
-1.000000E+20
 20
-1.000000E+20
 30
-1.000000E+20
  9
$PLIMMIN
 10
0.0
 20
0.0
  9
$PLIMMAX
 10
12.0
 20
9.0
  9
$UNITMODE
 70
     0
  9
$VISRETAIN
 70
     0
  0
ENDSEC
  0
SECTION
  2
TABLES
  0
TABLE
  2
VPORT
 70
    10
  0
VPORT
  2
*ACTIVE
 70
     0
 10
0.0
 20
0.0
 11
1.0
 21
1.0
 12
5576.263114
 22
3412.5
 13
0.0
 23
0.0
 14
1.0
 24
1.0
 15
10.0
 25
10.0
 16
0.0
 26
0.0
 36
1.0
 17
0.0
 27
0.0
 37
0.0
 40
6825.0
 41
1.63407
 42
50.0
 43
0.0
 44
0.0
 50
0.0
 51
0.0
 71
     0
 72
   500
 73
     1
 74
     0
 75
     0
 76
     0
 77
     0
 78
     0
  0
VPORT
  2
2
 70
     0
 10
0.5
 20
0.0
 11
1.0
 21
1.0
 12
0.924031
 22
1.052651
 13
0.0
 23
0.0
 14
1.0
 24
1.0
 15
10.0
 25
10.0
 16
0.0
 26
0.0
 36
1.0
 17
0.0
 27
0.0
 37
0.0
 40
2.105302
 41
0.877814
 42
50.0
 43
0.0
 44
0.0
 50
0.0
 51
0.0
 71
     0
 72
   500
 73
     1
 74
     1
 75
     0
 76
     0
 77
     0
 78
     0
  0
VPORT
  2
2
 70
     0
 10
0.0
 20
0.0
 11
0.5
 21
1.0
 12
0.924031
 22
1.052651
 13
0.0
 23
0.0
 14
1.0
 24
1.0
 15
10.0
 25
10.0
 16
0.0
 26
0.0
 36
1.0
 17
0.0
 27
0.0
 37
0.0
 40
2.105302
 41
0.877814
 42
50.0
 43
0.0
 44
0.0
 50
0.0
 51
0.0
 71
     0
 72
   500
 73
     1
 74
     1
 75
     0
 76
     0
 77
     0
 78
     0
  0
VPORT
  2
3
 70
     0
 10
0.0
 20
0.5
 11
1.0
 21
1.0
 12
2.83217
 22
1.052651
 13
0.0
 23
0.0
 14
1.0
 24
1.0
 15
10.0
 25
10.0
 16
0.0
 26
0.0
 36
1.0
 17
0.0
 27
0.0
 37
0.0
 40
2.105302
 41
3.571429
 42
50.0
 43
0.0
 44
0.0
 50
0.0
 51
0.0
 71
     0
 72
   500
 73
     1
 74
     1
 75
     0
 76
     0
 77
     0
 78
     0
  0
VPORT
  2
3
 70
     0
 10
0.0
 20
0.0
 11
1.0
 21
0.5
 12
2.856742
 22
1.052651
 13
0.0
 23
0.0
 14
1.0
 24
1.0
 15
10.0
 25
10.0
 16
0.0
 26
0.0
 36
1.0
 17
0.0
 27
0.0
 37
0.0
 40
2.105302
 41
3.594771
 42
50.0
 43
0.0
 44
0.0
 50
0.0
 51
0.0
 71
     0
 72
   500
 73
     1
 74
     1
 75
     0
 76
     0
 77
     0
 78
     0
  0
VPORT
  2
4
 70
     0
 10
0.5
 20
0.0
 11
1.0
 21
0.5
 12
2.886858
 22
1.052651
 13
0.0
 23
0.0
 14
1.0
 24
1.0
 15
10.0
 25
10.0
 16
0.0
 26
0.0
 36
1.0
 17
0.0
 27
0.0
 37
0.0
 40
4.275207
 41
1.784314
 42
50.0
 43
0.0
 44
0.0
 50
0.0
 51
0.0
 71
     0
 72
   500
 73
     1
 74
     1
 75
     0
 76
     0
 77
     0
 78
     0
  0
VPORT
  2
4
 70
     0
 10
0.5
 20
0.5
 11
1.0
 21
1.0
 12
2.86209
 22
1.052651
 13
0.0
 23
0.0
 14
1.0
 24
1.0
 15
10.0
 25
10.0
 16
0.0
 26
0.0
 36
1.0
 17
0.0
 27
0.0
 37
0.0
 40
4.275207
 41
1.772727
 42
50.0
 43
0.0
 44
0.0
 50
0.0
 51
0.0
 71
     0
 72
   500
 73
     1
 74
     1
 75
     0
 76
     0
 77
     0
 78
     0
  0
VPORT
  2
4
 70
     0
 10
0.0
 20
0.5
 11
0.5
 21
1.0
 12
2.86209
 22
1.052651
 13
0.0
 23
0.0
 14
1.0
 24
1.0
 15
10.0
 25
10.0
 16
0.0
 26
0.0
 36
1.0
 17
0.0
 27
0.0
 37
0.0
 40
4.275207
 41
1.772727
 42
50.0
 43
0.0
 44
0.0
 50
0.0
 51
0.0
 71
     0
 72
   500
 73
     1
 74
     1
 75
     0
 76
     0
 77
     0
 78
     0
  0
VPORT
  2
4
 70
     0
 10
0.0
 20
0.0
 11
0.5
 21
0.5
 12
2.886858
 22
1.052651
 13
0.0
 23
0.0
 14
1.0
 24
1.0
 15
10.0
 25
10.0
 16
0.0
 26
0.0
 36
1.0
 17
0.0
 27
0.0
 37
0.0
 40
4.275207
 41
1.784314
 42
50.0
 43
0.0
 44
0.0
 50
0.0
 51
0.0
 71
     0
 72
   500
 73
     1
 74
     1
 75
     0
 76
     0
 77
     0
 78
     0
  0
ENDTAB
  0
TABLE
  2
LTYPE
 70
     5
  0
LTYPE
  2
CONTINUOUS
 70
    64
  3
実線
 72
    65
 73
     0
 40
0.0
  0
LTYPE
  2
DASHED
 70
    64
  3
__ __ __ __ __ __ __ __ __ __ __ __ __ __ __
 72
    65
 73
     2
 40
0.75
 49
0.5
 49
-0.25
  0
LTYPE
  2
CENTER
 70
    64
  3
____ _ ____ _ ____ _ ____ _ ____ _ ____ _ ____
 72
    65
 73
     4
 40
2.0
 49
1.25
 49
-0.25
 49
0.25
 49
-0.25
  0
LTYPE
  2
PHANTOM
 70
    64
  3
_____ _ _ _____ _ _ _____ _ _ _____ _ _ ____
 72
    65
 73
     6
 40
2.5
 49
1.25
 49
-0.25
 49
0.25
 49
-0.25
 49
0.25
 49
-0.25
  0
LTYPE
  2
HIDDEN
 70
    64
  3
_ _ _ _ _ _ _ _ _ _ _ _ _ _ _ _ _ _ _ _ _ _ _
 72
    65
 73
     2
 40
0.375
 49
0.25
 49
-0.125
  0
ENDTAB
  0
TABLE
  2
LAYER
 70
    14
  0
LAYER
  2
0
 70
     0
 62
     7
  6
CONTINUOUS
  0
LAYER
  2
HASEN
 70
    64
 62
     2
  6
DASHED
  0
LAYER
  2
ITTEN
 70
    64
 62
     1
  6
CENTER
  0
LAYER
  2
SUNPOU
 70
    64
 62
     3
  6
CONTINUOUS
  0
LAYER
  2
TEXT
 70
    64
 62
     3
  6
CONTINUOUS
  0
LAYER
  2
SAISEN
 70
    64
 62
     4
  6
CONTINUOUS
  0
LAYER
  2
JISSEN
 70
    64
 62
     7
  6
CONTINUOUS
  0
LAYER
  2
WAKU
 70
    64
 62
    -5
  6
CONTINUOUS
  0
ENDTAB
  0
TABLE
  2
STYLE
 70
     2
  0
STYLE
  2
STANDARD
 70
     0
 40
0.0
 41
1.0
 50
0.0
 71
     0
 42
0.2
  3
ROMANS
  4
EXTFONT
  0
STYLE
  2
K
 70
    64
 40
0.0
 41
1.0
 50
0.0
 71
     0
 42
150.0
  3
ROMANS
  4
EXTFONT
  0
ENDTAB
  0
TABLE
  2
VIEW
 70
     0
  0
ENDTAB
  0
TABLE
  2
UCS
 70
     0
  0
ENDTAB
  0
TABLE
  2
APPID
 70
     1
  0
APPID
  2
ACAD
 70
    64
  0
ENDTAB
  0
TABLE
  2
DIMSTYLE
 70
     0
  0
ENDTAB
  0
ENDSEC
  0
SECTION
  2
BLOCKS
  0
BLOCK
  8
SUNPOU
  2
ARROWANG
 70
    64
 10
0.0
 20
0.0
 30
0.0
  3
ARROWANG
  0
LINE
  8
SUNPOU
 10
0.0
 20
0.0
 30
0.0
 11
-1.5
 21
0.401924
 31
0.0
  0
LINE
  8
SUNPOU
 10
0.0
 20
0.0
 30
0.0
 11
-1.5
 21
-0.401924
 31
0.0
  0
ENDBLK
  8
SUNPOU
  0
ENDSEC
  0
SECTION
  2
ENTITIES
  0
TEXT
  8
JISSEN
 10
2399.368598
 20
6143.89306
 30
0.0
 40
250.0
  1
組立マンホール構造図（内径７５０ｍｍ)
  7
K
  0
LINE
  8
ITTEN
 10
2394.429444
 20
1738.752709
 30
0.0
 11
2500.495462
 21
1844.818727
 31
0.0
  0
LINE
  8
HASEN
 10
2458.001705
 20
1816.467106
 30
0.0
 11
2422.713716
 21
1781.179116
 31
0.0
  0
LINE
  8
HASEN
 10
2436.855851
 20
1767.036981
 30
0.0
 11
2422.713716
 21
1781.179116
 31
0.0
  0
LINE
  8
HASEN
 10
2436.855851
 20
1767.036981
 30
0.0
 11
2472.143841
 21
1802.32497
 31
0.0
  0
CIRCLE
  8
JISSEN
 10
2146.942071
 20
1491.265336
 30
0.0
 40
450.0
  0
CIRCLE
  8
JISSEN
 10
2146.942071
 20
1491.265336
 30
0.0
 40
410.0
  0
CIRCLE
  8
JISSEN
 10
2146.942071
 20
1491.265336
 30
0.0
 40
403.0
  0
CIRCLE
  8
JISSEN
 10
2146.942071
 20
1491.265336
 30
0.0
 40
375.0
  0
TEXT
  8
TEXT
 10
1790.609715
 20
4708.136788
 30
0.0
 40
100.0
  1
Ｍ０Ｂ１８０
  7
K
  0
TEXT
  8
TEXT
 10
3592.605446
 20
4707.646036
 30
0.0
 40
100.0
  1
Ｍ０Ｂ１５０
  7
K
  0
TEXT
  8
TEXT
 10
5380.860747
 20
4702.028017
 30
0.0
 40
100.0
  1
Ｍ０Ｂ１２０
  7
K
  0
TEXT
  8
TEXT
 10
7208.494108
 20
4702.049991
 30
0.0
 40
100.0
  1
Ｍ０Ｂ９０
  7
K
  0
TEXT
  8
TEXT
 10
7260.478541
 20
2239.686871
 30
0.0
 40
100.0
  1
Ｍ０Ｂ６０
  7
K
  0
LINE
  8
SUNPOU
 10
7171.942071
 20
1746.778429
 30
0.0
 11
7171.942071
 21
1862.069218
 31
0.0
  0
LINE
  8
SUNPOU
 10
7921.942071
 20
1746.778429
 30
0.0
 11
7921.942071
 21
1862.069218
 31
0.0
  0
LINE
  8
SUNPOU
 10
7096.942071
 20
1967.429042
 30
0.0
 11
7996.942071
 21
1967.429042
 31
0.0
  0
INSERT
  8
SUNPOU
  2
ARROWANG
 10
7096.942071
 20
1967.429042
 30
0.0
 41
30.0
 42
30.0
 50
180.0
 43
30.0
  0
INSERT
  8
SUNPOU
  2
ARROWANG
 10
7996.942071
 20
1967.429042
 30
0.0
 41
30.0
 42
30.0
 43
30.0
  0
TEXT
  8
SUNPOU
 10
7461.2278
 20
2012.429042
 30
0.0
 40
60.0
  1
900
  7
K
 72
     1
 11
7546.942086
 21
2012.429042
 31
0.0
  0
LINE
  8
SUNPOU
 10
7096.942071
 20
1832.069218
 30
0.0
 11
7171.942071
 21
1832.069218
 31
0.0
  0
INSERT
  8
SUNPOU
  2
ARROWANG
 10
7171.942071
 20
1832.069218
 30
0.0
 41
30.0
 42
30.0
 50
180.0
 43
30.0
  0
INSERT
  8
SUNPOU
  2
ARROWANG
 10
7096.942071
 20
1832.069218
 30
0.0
 41
30.0
 42
30.0
 43
30.0
  0
LINE
  8
SUNPOU
 10
7096.942071
 20
1832.069218
 30
0.0
 11
6964.942071
 21
1832.069218
 31
0.0
  0
LINE
  8
SUNPOU
 10
7171.942071
 20
1832.069218
 30
0.0
 11
7231.942071
 21
1832.069218
 31
0.0
  0
TEXT
  8
SUNPOU
 10
6973.799214
 20
1877.069218
 30
0.0
 40
60.0
  1
75
  7
K
 72
     1
 11
7030.942071
 21
1877.069218
 31
0.0
  0
LINE
  8
SUNPOU
 10
7171.942071
 20
1832.069218
 30
0.0
 11
7921.942071
 21
1832.069218
 31
0.0
  0
INSERT
  8
SUNPOU
  2
ARROWANG
 10
7171.942071
 20
1832.069218
 30
0.0
 41
30.0
 42
30.0
 50
180.0
 43
30.0
  0
INSERT
  8
SUNPOU
  2
ARROWANG
 10
7921.942071
 20
1832.069218
 30
0.0
 41
30.0
 42
30.0
 43
30.0
  0
TEXT
  8
SUNPOU
 10
7461.227785
 20
1877.069218
 30
0.0
 40
60.0
  1
750
  7
K
 72
     1
 11
7546.942071
 21
1877.069218
 31
0.0
  0
LINE
  8
SUNPOU
 10
7921.942071
 20
1832.069218
 30
0.0
 11
7996.942071
 21
1832.069218
 31
0.0
  0
INSERT
  8
SUNPOU
  2
ARROWANG
 10
7996.942071
 20
1832.069218
 30
0.0
 41
30.0
 42
30.0
 50
180.0
 43
30.0
  0
INSERT
  8
SUNPOU
  2
ARROWANG
 10
7921.942071
 20
1832.069218
 30
0.0
 41
30.0
 42
30.0
 43
30.0
  0
LINE
  8
SUNPOU
 10
7996.942071
 20
1832.069218
 30
0.0
 11
8128.942071
 21
1832.069218
 31
0.0
  0
TEXT
  8
SUNPOU
 10
8086.942071
 20
1877.069218
 30
0.0
 40
60.0
  1
75
  7
K
  0
LINE
  8
SUNPOU
 10
7921.942071
 20
1832.069218
 30
0.0
 11
7861.942071
 21
1832.069218
 31
0.0
  0
LINE
  8
SUNPOU
 10
7996.942071
 20
1769.778429
 30
0.0
 11
7996.942071
 21
1997.429042
 31
0.0
  0
LINE
  8
SUNPOU
 10
7096.942071
 20
1769.778429
 30
0.0
 11
7096.942071
 21
1997.429042
 31
0.0
  0
LINE
  8
JISSEN
 10
7546.942071
 20
1739.778429
 30
0.0
 11
7996.942071
 21
1739.778429
 31
0.0
  0
LINE
  8
SUNPOU
 10
7096.942071
 20
4236.265336
 30
0.0
 11
7096.942071
 21
4463.915949
 31
0.0
  0
LINE
  8
SUNPOU
 10
7171.942071
 20
4213.265336
 30
0.0
 11
7171.942071
 21
4328.556125
 31
0.0
  0
LINE
  8
SUNPOU
 10
7921.942071
 20
4213.265336
 30
0.0
 11
7921.942071
 21
4328.556125
 31
0.0
  0
LINE
  8
SUNPOU
 10
7996.942071
 20
4236.265336
 30
0.0
 11
7996.942071
 21
4463.915949
 31
0.0
  0
LINE
  8
SUNPOU
 10
7921.942071
 20
4298.556125
 30
0.0
 11
7861.942071
 21
4298.556125
 31
0.0
  0
TEXT
  8
SUNPOU
 10
8086.942071
 20
4343.556125
 30
0.0
 40
60.0
  1
75
  7
K
  0
LINE
  8
SUNPOU
 10
7996.942071
 20
4298.556125
 30
0.0
 11
8128.942071
 21
4298.556125
 31
0.0
  0
INSERT
  8
SUNPOU
  2
ARROWANG
 10
7921.942071
 20
4298.556125
 30
0.0
 41
30.0
 42
30.0
 43
30.0
  0
INSERT
  8
SUNPOU
  2
ARROWANG
 10
7996.942071
 20
4298.556125
 30
0.0
 41
30.0
 42
30.0
 50
180.0
 43
30.0
  0
LINE
  8
SUNPOU
 10
7921.942071
 20
4298.556125
 30
0.0
 11
7996.942071
 21
4298.556125
 31
0.0
  0
TEXT
  8
SUNPOU
 10
7461.227785
 20
4343.556125
 30
0.0
 40
60.0
  1
750
  7
K
 72
     1
 11
7546.942071
 21
4343.556125
 31
0.0
  0
INSERT
  8
SUNPOU
  2
ARROWANG
 10
7921.942071
 20
4298.556125
 30
0.0
 41
30.0
 42
30.0
 43
30.0
  0
INSERT
  8
SUNPOU
  2
ARROWANG
 10
7171.942071
 20
4298.556125
 30
0.0
 41
30.0
 42
30.0
 50
180.0
 43
30.0
  0
LINE
  8
SUNPOU
 10
7171.942071
 20
4298.556125
 30
0.0
 11
7921.942071
 21
4298.556125
 31
0.0
  0
TEXT
  8
SUNPOU
 10
6973.799214
 20
4343.556125
 30
0.0
 40
60.0
  1
75
  7
K
 72
     1
 11
7030.942071
 21
4343.556125
 31
0.0
  0
LINE
  8
SUNPOU
 10
7171.942071
 20
4298.556125
 30
0.0
 11
7231.942071
 21
4298.556125
 31
0.0
  0
LINE
  8
SUNPOU
 10
7096.942071
 20
4298.556125
 30
0.0
 11
6964.942071
 21
4298.556125
 31
0.0
  0
INSERT
  8
SUNPOU
  2
ARROWANG
 10
7096.942071
 20
4298.556125
 30
0.0
 41
30.0
 42
30.0
 43
30.0
  0
INSERT
  8
SUNPOU
  2
ARROWANG
 10
7171.942071
 20
4298.556125
 30
0.0
 41
30.0
 42
30.0
 50
180.0
 43
30.0
  0
LINE
  8
SUNPOU
 10
7096.942071
 20
4298.556125
 30
0.0
 11
7171.942071
 21
4298.556125
 31
0.0
  0
TEXT
  8
SUNPOU
 10
7461.2278
 20
4478.915949
 30
0.0
 40
60.0
  1
900
  7
K
 72
     1
 11
7546.942086
 21
4478.915949
 31
0.0
  0
INSERT
  8
SUNPOU
  2
ARROWANG
 10
7996.942071
 20
4433.915949
 30
0.0
 41
30.0
 42
30.0
 43
30.0
  0
INSERT
  8
SUNPOU
  2
ARROWANG
 10
7096.942071
 20
4433.915949
 30
0.0
 41
30.0
 42
30.0
 50
180.0
 43
30.0
  0
LINE
  8
SUNPOU
 10
7096.942071
 20
4433.915949
 30
0.0
 11
7996.942071
 21
4433.915949
 31
0.0
  0
LINE
  8
ITTEN
 10
7546.942071
 20
4256.265336
 30
0.0
 11
7546.942071
 21
3241.265336
 31
0.0
  0
LINE
  8
JISSEN
 10
7546.942071
 20
4206.265336
 30
0.0
 11
7996.942071
 21
4206.265336
 31
0.0
  0
LINE
  8
SUNPOU
 10
5296.942071
 20
4236.265336
 30
0.0
 11
5296.942071
 21
4463.915949
 31
0.0
  0
LINE
  8
SUNPOU
 10
6196.942071
 20
4236.265336
 30
0.0
 11
6196.942071
 21
4463.915949
 31
0.0
  0
LINE
  8
SUNPOU
 10
5296.942071
 20
4433.915949
 30
0.0
 11
6196.942071
 21
4433.915949
 31
0.0
  0
INSERT
  8
SUNPOU
  2
ARROWANG
 10
5296.942071
 20
4433.915949
 30
0.0
 41
30.0
 42
30.0
 50
180.0
 43
30.0
  0
INSERT
  8
SUNPOU
  2
ARROWANG
 10
6196.942071
 20
4433.915949
 30
0.0
 41
30.0
 42
30.0
 43
30.0
  0
TEXT
  8
SUNPOU
 10
5661.2278
 20
4478.915949
 30
0.0
 40
60.0
  1
900
  7
K
 72
     1
 11
5746.942086
 21
4478.915949
 31
0.0
  0
LINE
  8
SUNPOU
 10
5296.942071
 20
4236.265336
 30
0.0
 11
5296.942071
 21
4328.556125
 31
0.0
  0
LINE
  8
SUNPOU
 10
5371.942071
 20
4213.265336
 30
0.0
 11
5371.942071
 21
4328.556125
 31
0.0
  0
LINE
  8
SUNPOU
 10
5296.942071
 20
4298.556125
 30
0.0
 11
5371.942071
 21
4298.556125
 31
0.0
  0
INSERT
  8
SUNPOU
  2
ARROWANG
 10
5371.942071
 20
4298.556125
 30
0.0
 41
30.0
 42
30.0
 50
180.0
 43
30.0
  0
INSERT
  8
SUNPOU
  2
ARROWANG
 10
5296.942071
 20
4298.556125
 30
0.0
 41
30.0
 42
30.0
 43
30.0
  0
LINE
  8
SUNPOU
 10
5296.942071
 20
4298.556125
 30
0.0
 11
5164.942071
 21
4298.556125
 31
0.0
  0
LINE
  8
SUNPOU
 10
5371.942071
 20
4298.556125
 30
0.0
 11
5431.942071
 21
4298.556125
 31
0.0
  0
TEXT
  8
SUNPOU
 10
5173.799214
 20
4343.556125
 30
0.0
 40
60.0
  1
75
  7
K
 72
     1
 11
5230.942071
 21
4343.556125
 31
0.0
  0
LINE
  8
SUNPOU
 10
5371.942071
 20
4298.556125
 30
0.0
 11
6121.942071
 21
4298.556125
 31
0.0
  0
LINE
  8
SUNPOU
 10
6121.942071
 20
4213.265336
 30
0.0
 11
6121.942071
 21
4328.556125
 31
0.0
  0
INSERT
  8
SUNPOU
  2
ARROWANG
 10
5371.942071
 20
4298.556125
 30
0.0
 41
30.0
 42
30.0
 50
180.0
 43
30.0
  0
INSERT
  8
SUNPOU
  2
ARROWANG
 10
6121.942071
 20
4298.556125
 30
0.0
 41
30.0
 42
30.0
 43
30.0
  0
TEXT
  8
SUNPOU
 10
5661.227785
 20
4343.556125
 30
0.0
 40
60.0
  1
750
  7
K
 72
     1
 11
5746.942071
 21
4343.556125
 31
0.0
  0
LINE
  8
SUNPOU
 10
6121.942071
 20
4298.556125
 30
0.0
 11
6196.942071
 21
4298.556125
 31
0.0
  0
LINE
  8
SUNPOU
 10
6196.942071
 20
4236.265336
 30
0.0
 11
6196.942071
 21
4328.556125
 31
0.0
  0
INSERT
  8
SUNPOU
  2
ARROWANG
 10
6196.942071
 20
4298.556125
 30
0.0
 41
30.0
 42
30.0
 50
180.0
 43
30.0
  0
INSERT
  8
SUNPOU
  2
ARROWANG
 10
6121.942071
 20
4298.556125
 30
0.0
 41
30.0
 42
30.0
 43
30.0
  0
LINE
  8
SUNPOU
 10
6196.942071
 20
4298.556125
 30
0.0
 11
6328.942071
 21
4298.556125
 31
0.0
  0
TEXT
  8
SUNPOU
 10
6286.942071
 20
4343.556125
 30
0.0
 40
60.0
  1
75
  7
K
  0
LINE
  8
SUNPOU
 10
6121.942071
 20
4298.556125
 30
0.0
 11
6061.942071
 21
4298.556125
 31
0.0
  0
LINE
  8
JISSEN
 10
5746.942071
 20
4206.265336
 30
0.0
 11
6196.942071
 21
4206.265336
 31
0.0
  0
LINE
  8
SUNPOU
 10
4479.09657
 20
4300.094305
 30
0.0
 11
4396.942071
 21
4300.094305
 31
0.0
  0
INSERT
  8
SUNPOU
  2
ARROWANG
 10
4396.942071
 20
4300.094305
 30
0.0
 41
-30.0
 42
30.0
 43
30.0
  0
TEXT
  8
SUNPOU
 10
4402.093735
 20
4346.054326
 30
0.0
 40
60.0
  1
75
  7
K
 72
     1
 11
4459.236592
 21
4346.054326
 31
0.0
  0
LINE
  8
SUNPOU
 10
4396.942071
 20
4236.265336
 30
0.0
 11
4396.942071
 21
4330.094305
 31
0.0
  0
LINE
  8
SUNPOU
 10
4314.787572
 20
4300.094305
 30
0.0
 11
4396.942071
 21
4300.094305
 31
0.0
  0
TEXT
  8
SUNPOU
 10
3857.650536
 20
4345.094305
 30
0.0
 40
60.0
  1
750
  7
K
 72
     1
 11
3943.364821
 21
4345.094305
 31
0.0
  0
INSERT
  8
SUNPOU
  2
ARROWANG
 10
4314.787572
 20
4300.094305
 30
0.0
 41
30.0
 42
30.0
 43
30.0
  0
INSERT
  8
SUNPOU
  2
ARROWANG
 10
3571.942071
 20
4300.094305
 30
0.0
 41
30.0
 42
30.0
 50
180.0
 43
30.0
  0
LINE
  8
SUNPOU
 10
4314.787572
 20
4213.265336
 30
0.0
 11
4314.787572
 21
4330.094305
 31
0.0
  0
LINE
  8
SUNPOU
 10
3571.942071
 20
4300.094305
 30
0.0
 11
4314.787572
 21
4300.094305
 31
0.0
  0
TEXT
  8
SUNPOU
 10
3373.799214
 20
4345.094305
 30
0.0
 40
60.0
  1
75
  7
K
 72
     1
 11
3430.942071
 21
4345.094305
 31
0.0
  0
LINE
  8
SUNPOU
 10
3571.942071
 20
4300.094305
 30
0.0
 11
3631.942071
 21
4300.094305
 31
0.0
  0
LINE
  8
SUNPOU
 10
3496.942071
 20
4300.094305
 30
0.0
 11
3364.942071
 21
4300.094305
 31
0.0
  0
INSERT
  8
SUNPOU
  2
ARROWANG
 10
3496.942071
 20
4300.094305
 30
0.0
 41
30.0
 42
30.0
 43
30.0
  0
INSERT
  8
SUNPOU
  2
ARROWANG
 10
3571.942071
 20
4300.094305
 30
0.0
 41
30.0
 42
30.0
 50
180.0
 43
30.0
  0
LINE
  8
SUNPOU
 10
3496.942071
 20
4300.094305
 30
0.0
 11
3571.942071
 21
4300.094305
 31
0.0
  0
LINE
  8
SUNPOU
 10
3571.942071
 20
4213.265336
 30
0.0
 11
3571.942071
 21
4330.094305
 31
0.0
  0
LINE
  8
SUNPOU
 10
3496.942071
 20
4236.265336
 30
0.0
 11
3496.942071
 21
4330.094305
 31
0.0
  0
TEXT
  8
SUNPOU
 10
3861.2278
 20
4475.326863
 30
0.0
 40
60.0
  1
900
  7
K
 72
     1
 11
3946.942086
 21
4475.326863
 31
0.0
  0
INSERT
  8
SUNPOU
  2
ARROWANG
 10
4396.942071
 20
4430.326863
 30
0.0
 41
30.0
 42
30.0
 43
30.0
  0
INSERT
  8
SUNPOU
  2
ARROWANG
 10
3496.942071
 20
4430.326863
 30
0.0
 41
30.0
 42
30.0
 50
180.0
 43
30.0
  0
LINE
  8
SUNPOU
 10
3496.942071
 20
4430.326863
 30
0.0
 11
4396.942071
 21
4430.326863
 31
0.0
  0
LINE
  8
SUNPOU
 10
4396.942071
 20
4236.265336
 30
0.0
 11
4396.942071
 21
4460.326863
 31
0.0
  0
LINE
  8
SUNPOU
 10
3496.942071
 20
4236.265336
 30
0.0
 11
3496.942071
 21
4460.326863
 31
0.0
  0
LINE
  8
JISSEN
 10
3946.942071
 20
4206.265336
 30
0.0
 11
4396.942071
 21
4206.265336
 31
0.0
  0
LINE
  8
SUNPOU
 10
2521.942071
 20
4298.556125
 30
0.0
 11
2461.942071
 21
4298.556125
 31
0.0
  0
TEXT
  8
SUNPOU
 10
2686.942071
 20
4343.556125
 30
0.0
 40
60.0
  1
75
  7
K
  0
LINE
  8
SUNPOU
 10
2596.942071
 20
4298.556125
 30
0.0
 11
2728.942071
 21
4298.556125
 31
0.0
  0
INSERT
  8
SUNPOU
  2
ARROWANG
 10
2521.942071
 20
4298.556125
 30
0.0
 41
30.0
 42
30.0
 43
30.0
  0
INSERT
  8
SUNPOU
  2
ARROWANG
 10
2596.942071
 20
4298.556125
 30
0.0
 41
30.0
 42
30.0
 50
180.0
 43
30.0
  0
LINE
  8
SUNPOU
 10
2596.942071
 20
4236.265336
 30
0.0
 11
2596.942071
 21
4328.556125
 31
0.0
  0
LINE
  8
SUNPOU
 10
2521.942071
 20
4298.556125
 30
0.0
 11
2596.942071
 21
4298.556125
 31
0.0
  0
TEXT
  8
SUNPOU
 10
2061.227785
 20
4343.556125
 30
0.0
 40
60.0
  1
750
  7
K
 72
     1
 11
2146.942071
 21
4343.556125
 31
0.0
  0
INSERT
  8
SUNPOU
  2
ARROWANG
 10
2521.942071
 20
4298.556125
 30
0.0
 41
30.0
 42
30.0
 43
30.0
  0
INSERT
  8
SUNPOU
  2
ARROWANG
 10
1771.942071
 20
4298.556125
 30
0.0
 41
30.0
 42
30.0
 50
180.0
 43
30.0
  0
LINE
  8
SUNPOU
 10
2521.942071
 20
4213.265336
 30
0.0
 11
2521.942071
 21
4328.556125
 31
0.0
  0
LINE
  8
SUNPOU
 10
1771.942071
 20
4298.556125
 30
0.0
 11
2521.942071
 21
4298.556125
 31
0.0
  0
TEXT
  8
SUNPOU
 10
1573.799214
 20
4343.556125
 30
0.0
 40
60.0
  1
75
  7
K
 72
     1
 11
1630.942071
 21
4343.556125
 31
0.0
  0
LINE
  8
SUNPOU
 10
1771.942071
 20
4298.556125
 30
0.0
 11
1831.942071
 21
4298.556125
 31
0.0
  0
LINE
  8
SUNPOU
 10
1696.942071
 20
4298.556125
 30
0.0
 11
1564.942071
 21
4298.556125
 31
0.0
  0
INSERT
  8
SUNPOU
  2
ARROWANG
 10
1696.942071
 20
4298.556125
 30
0.0
 41
30.0
 42
30.0
 43
30.0
  0
INSERT
  8
SUNPOU
  2
ARROWANG
 10
1771.942071
 20
4298.556125
 30
0.0
 41
30.0
 42
30.0
 50
180.0
 43
30.0
  0
LINE
  8
SUNPOU
 10
1696.942071
 20
4298.556125
 30
0.0
 11
1771.942071
 21
4298.556125
 31
0.0
  0
LINE
  8
SUNPOU
 10
1771.942071
 20
4213.265336
 30
0.0
 11
1771.942071
 21
4328.556125
 31
0.0
  0
LINE
  8
SUNPOU
 10
1696.942071
 20
4236.265336
 30
0.0
 11
1696.942071
 21
4328.556125
 31
0.0
  0
TEXT
  8
SUNPOU
 10
2061.2278
 20
4478.915949
 30
0.0
 40
60.0
  1
900
  7
K
 72
     1
 11
2146.942086
 21
4478.915949
 31
0.0
  0
INSERT
  8
SUNPOU
  2
ARROWANG
 10
2596.942071
 20
4433.915949
 30
0.0
 41
30.0
 42
30.0
 43
30.0
  0
INSERT
  8
SUNPOU
  2
ARROWANG
 10
1696.942071
 20
4433.915949
 30
0.0
 41
30.0
 42
30.0
 50
180.0
 43
30.0
  0
LINE
  8
SUNPOU
 10
1696.942071
 20
4433.915949
 30
0.0
 11
2596.942071
 21
4433.915949
 31
0.0
  0
LINE
  8
SUNPOU
 10
2596.942071
 20
4236.265336
 30
0.0
 11
2596.942071
 21
4463.915949
 31
0.0
  0
LINE
  8
SUNPOU
 10
1696.942071
 20
4236.265336
 30
0.0
 11
1696.942071
 21
4463.915949
 31
0.0
  0
LINE
  8
JISSEN
 10
2146.942071
 20
4206.265336
 30
0.0
 11
2596.942071
 21
4206.265336
 31
0.0
  0
TEXT
  8
TEXT
 10
4484.32314
 20
5033.600989
 30
0.0
 40
120.0
  1
管取付壁
  7
K
  0
TEXT
  8
SUNPOU
 10
7271.133737
 20
1335.064143
 30
0.0
 40
60.0
  1
592
 50
90.0
  7
K
 72
     1
 11
7271.133737
 21
1420.778429
 31
0.0
  0
INSERT
  8
SUNPOU
  2
ARROWANG
 10
7316.133737
 20
1716.778429
 30
0.0
 41
30.0
 42
30.0
 50
90.0
 43
30.0
  0
INSERT
  8
SUNPOU
  2
ARROWANG
 10
7316.133737
 20
1124.778429
 30
0.0
 41
30.0
 42
30.0
 50
270.0
 43
30.0
  0
LINE
  8
SUNPOU
 10
7316.133737
 20
1124.778429
 30
0.0
 11
7316.133737
 21
1716.778429
 31
0.0
  0
LINE
  8
SUNPOU
 10
7286.133737
 20
1716.778429
 30
0.0
 11
7286.133737
 21
1716.778429
 31
0.0
  0
LINE
  8
SUNPOU
 10
7201.942071
 20
1124.778429
 30
0.0
 11
7346.133737
 21
1124.778429
 31
0.0
  0
TEXT
  8
SUNPOU
 10
6855.898384
 20
1352.635572
 30
0.0
 40
60.0
  1
600
 50
90.0
  7
K
 72
     1
 11
6855.898384
 21
1439.778429
 31
0.0
  0
INSERT
  8
SUNPOU
  2
ARROWANG
 10
6900.898384
 20
1739.778429
 30
0.0
 41
30.0
 42
30.0
 50
90.0
 43
30.0
  0
INSERT
  8
SUNPOU
  2
ARROWANG
 10
6900.898384
 20
1139.778429
 30
0.0
 41
30.0
 42
30.0
 50
270.0
 43
30.0
  0
LINE
  8
SUNPOU
 10
6900.898384
 20
1139.778429
 30
0.0
 11
6900.898384
 21
1739.778429
 31
0.0
  0
LINE
  8
SUNPOU
 10
7066.942071
 20
1739.778429
 30
0.0
 11
6870.898384
 21
1739.778429
 31
0.0
  0
LINE
  8
SUNPOU
 10
7066.942071
 20
1139.778429
 30
0.0
 11
6870.898384
 21
1139.778429
 31
0.0
  0
INSERT
  8
SUNPOU
  2
ARROWANG
 10
7316.133737
 20
1716.778429
 30
0.0
 41
30.0
 42
30.0
 50
90.0
 43
30.0
  0
LINE
  8
SUNPOU
 10
7286.133737
 20
1716.778429
 30
0.0
 11
7286.133737
 21
1716.778429
 31
0.0
  0
LINE
  8
SUNPOU
 10
7316.133737
 20
1739.778429
 30
0.0
 11
7316.133737
 21
1799.778429
 31
0.0
  0
TEXT
  8
SUNPOU
 10
7286.214696
 20
1585.971434
 30
0.0
 40
60.0
  1
23
 50
90.0
  7
K
  0
LINE
  8
SUNPOU
 10
7316.133737
 20
1739.778429
 30
0.0
 11
7316.133737
 21
1871.778429
 31
0.0
  0
INSERT
  8
SUNPOU
  2
ARROWANG
 10
7316.133737
 20
1739.778429
 30
0.0
 41
30.0
 42
30.0
 50
270.0
 43
30.0
  0
LINE
  8
SUNPOU
 10
7316.133737
 20
1739.778429
 30
0.0
 11
7316.133737
 21
1716.778429
 31
0.0
  0
LINE
  8
SUNPOU
 10
7201.942071
 20
1716.778429
 30
0.0
 11
7346.133737
 21
1716.778429
 31
0.0
  0
TEXT
  8
SUNPOU
 10
8106.423054
 20
1099.778429
 30
0.0
 40
60.0
  1
100
 50
90.0
  7
K
 72
     1
 11
8106.423054
 21
1189.778429
 31
0.0
  0
INSERT
  8
SUNPOU
  2
ARROWANG
 10
8151.423054
 20
1239.778429
 30
0.0
 41
30.0
 42
30.0
 50
90.0
 43
30.0
  0
INSERT
  8
SUNPOU
  2
ARROWANG
 10
8151.423054
 20
1139.778429
 30
0.0
 41
30.0
 42
30.0
 50
270.0
 43
30.0
  0
LINE
  8
SUNPOU
 10
8151.423054
 20
1139.778429
 30
0.0
 11
8151.423054
 21
1239.778429
 31
0.0
  0
LINE
  8
SUNPOU
 10
7873.173131
 20
1239.778429
 30
0.0
 11
8181.423054
 21
1239.778429
 31
0.0
  0
LINE
  8
SUNPOU
 10
8026.942071
 20
1139.778429
 30
0.0
 11
8181.423054
 21
1139.778429
 31
0.0
  0
CIRCLE
  8
HASEN
 10
7843.173131
 20
1239.778429
 30
0.0
 40
10.0
  0
TEXT
  8
SUNPOU
 10
8154.179424
 20
1599.778429
 30
0.0
 40
60.0
  1
100
 50
90.0
  7
K
 72
     1
 11
8154.179424
 21
1689.778429
 31
0.0
  0
INSERT
  8
SUNPOU
  2
ARROWANG
 10
8199.179424
 20
1739.778429
 30
0.0
 41
30.0
 42
30.0
 50
90.0
 43
30.0
  0
INSERT
  8
SUNPOU
  2
ARROWANG
 10
8199.179424
 20
1639.778429
 30
0.0
 41
30.0
 42
30.0
 50
270.0
 43
30.0
  0
LINE
  8
SUNPOU
 10
8199.179424
 20
1639.778429
 30
0.0
 11
8199.179424
 21
1739.778429
 31
0.0
  0
LINE
  8
SUNPOU
 10
8026.942071
 20
1739.778429
 30
0.0
 11
8229.179424
 21
1739.778429
 31
0.0
  0
LINE
  8
SUNPOU
 10
7873.173131
 20
1639.778429
 30
0.0
 11
8229.179424
 21
1639.778429
 31
0.0
  0
CIRCLE
  8
HASEN
 10
7843.173131
 20
1639.778429
 30
0.0
 40
10.0
  0
ARC
  8
HASEN
 10
7546.942071
 20
1419.778429
 30
0.0
 40
183.0
 50
270.0
 51
90.0
  0
ARC
  8
JISSEN
 10
7546.942071
 20
1419.778429
 30
0.0
 40
183.0
 50
90.0
 51
270.0
  0
LINE
  8
ITTEN
 10
7313.942071
 20
1419.778429
 30
0.0
 11
7779.942071
 21
1419.778429
 31
0.0
  0
LINE
  8
HASEN
 10
7921.942071
 20
1716.778429
 30
0.0
 11
7921.942071
 21
1124.778429
 31
0.0
  0
LINE
  8
JISSEN
 10
7546.942071
 20
1139.778429
 30
0.0
 11
7955.942071
 21
1139.778429
 31
0.0
  0
LINE
  8
JISSEN
 10
7946.942071
 20
1124.778429
 30
0.0
 11
7546.942071
 21
1124.778429
 31
0.0
  0
LINE
  8
JISSEN
 10
7955.942071
 20
1139.778429
 30
0.0
 11
7946.942071
 21
1124.778429
 31
0.0
  0
LINE
  8
JISSEN
 10
7996.942071
 20
1139.778429
 30
0.0
 11
7955.942071
 21
1139.778429
 31
0.0
  0
LINE
  8
JISSEN
 10
7146.942071
 20
1124.778429
 30
0.0
 11
7546.942071
 21
1124.778429
 31
0.0
  0
LINE
  8
JISSEN
 10
7137.942071
 20
1139.778429
 30
0.0
 11
7146.942071
 21
1124.778429
 31
0.0
  0
LINE
  8
JISSEN
 10
7096.942071
 20
1139.778429
 30
0.0
 11
7137.942071
 21
1139.778429
 31
0.0
  0
LINE
  8
HASEN
 10
7949.942071
 20
1716.778429
 30
0.0
 11
7546.942071
 21
1716.778429
 31
0.0
  0
LINE
  8
HASEN
 10
7956.942071
 20
1739.778429
 30
0.0
 11
7949.942071
 21
1716.778429
 31
0.0
  0
LINE
  8
JISSEN
 10
7143.942071
 20
1716.778429
 30
0.0
 11
7546.942071
 21
1716.778429
 31
0.0
  0
LINE
  8
JISSEN
 10
7136.942071
 20
1739.778429
 30
0.0
 11
7143.942071
 21
1716.778429
 31
0.0
  0
LINE
  8
JISSEN
 10
7171.942071
 20
1716.778429
 30
0.0
 11
7171.942071
 21
1124.778429
 31
0.0
  0
LINE
  8
JISSEN
 10
7096.942071
 20
1739.778429
 30
0.0
 11
7096.942071
 21
1139.778429
 31
0.0
  0
LINE
  8
JISSEN
 10
7996.942071
 20
1739.778429
 30
0.0
 11
7996.942071
 21
1139.778429
 31
0.0
  0
LINE
  8
JISSEN
 10
7096.942071
 20
1739.778429
 30
0.0
 11
7546.942071
 21
1739.778429
 31
0.0
  0
LINE
  8
ITTEN
 10
7546.942071
 20
1789.778429
 30
0.0
 11
7546.942071
 21
1074.778429
 31
0.0
  0
LINE
  8
SUNPOU
 10
7286.133737
 20
1716.778429
 30
0.0
 11
7286.133737
 21
1716.778429
 31
0.0
  0
LINE
  8
SUNPOU
 10
7286.133737
 20
1716.778429
 30
0.0
 11
7286.133737
 21
1716.778429
 31
0.0
  0
INSERT
  8
SUNPOU
  2
ARROWANG
 10
7316.133737
 20
1716.778429
 30
0.0
 41
30.0
 42
30.0
 50
90.0
 43
30.0
  0
TEXT
  8
SUNPOU
 10
7271.133737
 20
3651.55105
 30
0.0
 40
60.0
  1
892
 50
90.0
  7
K
 72
     1
 11
7271.133737
 21
3737.265336
 31
0.0
  0
INSERT
  8
SUNPOU
  2
ARROWANG
 10
7316.133737
 20
4183.265336
 30
0.0
 41
30.0
 42
30.0
 50
90.0
 43
30.0
  0
INSERT
  8
SUNPOU
  2
ARROWANG
 10
7316.133737
 20
3291.265336
 30
0.0
 41
30.0
 42
30.0
 50
270.0
 43
30.0
  0
LINE
  8
SUNPOU
 10
7316.133737
 20
3291.265336
 30
0.0
 11
7316.133737
 21
4183.265336
 31
0.0
  0
LINE
  8
SUNPOU
 10
7286.133737
 20
4183.265336
 30
0.0
 11
7286.133737
 21
4183.265336
 31
0.0
  0
LINE
  8
SUNPOU
 10
7201.942071
 20
3291.265336
 30
0.0
 11
7346.133737
 21
3291.265336
 31
0.0
  0
TEXT
  8
SUNPOU
 10
6817.319248
 20
3670.55105
 30
0.0
 40
60.0
  1
900
 50
90.0
  7
K
 72
     1
 11
6817.319248
 21
3756.265336
 31
0.0
  0
INSERT
  8
SUNPOU
  2
ARROWANG
 10
6862.319248
 20
4206.265336
 30
0.0
 41
30.0
 42
30.0
 50
90.0
 43
30.0
  0
INSERT
  8
SUNPOU
  2
ARROWANG
 10
6862.319248
 20
3306.265336
 30
0.0
 41
30.0
 42
30.0
 50
270.0
 43
30.0
  0
LINE
  8
SUNPOU
 10
6862.319248
 20
3306.265336
 30
0.0
 11
6862.319248
 21
4206.265336
 31
0.0
  0
LINE
  8
SUNPOU
 10
7066.942071
 20
4206.265336
 30
0.0
 11
6832.319248
 21
4206.265336
 31
0.0
  0
LINE
  8
SUNPOU
 10
7066.942071
 20
3306.265336
 30
0.0
 11
6832.319248
 21
3306.265336
 31
0.0
  0
LINE
  8
SUNPOU
 10
7286.133737
 20
4183.265336
 30
0.0
 11
7286.133737
 21
4183.265336
 31
0.0
  0
LINE
  8
JISSEN
 10
7096.942071
 20
4206.265336
 30
0.0
 11
7546.942071
 21
4206.265336
 31
0.0
  0
LINE
  8
JISSEN
 10
7996.942071
 20
4206.265336
 30
0.0
 11
7996.942071
 21
3306.265336
 31
0.0
  0
LINE
  8
JISSEN
 10
7096.942071
 20
4206.265336
 30
0.0
 11
7096.942071
 21
3306.265336
 31
0.0
  0
LINE
  8
JISSEN
 10
7171.942071
 20
4183.265336
 30
0.0
 11
7171.942071
 21
3291.265336
 31
0.0
  0
LINE
  8
JISSEN
 10
7136.942071
 20
4206.265336
 30
0.0
 11
7143.942071
 21
4183.265336
 31
0.0
  0
LINE
  8
JISSEN
 10
7143.942071
 20
4183.265336
 30
0.0
 11
7546.942071
 21
4183.265336
 31
0.0
  0
LINE
  8
HASEN
 10
7956.942071
 20
4206.265336
 30
0.0
 11
7949.942071
 21
4183.265336
 31
0.0
  0
LINE
  8
HASEN
 10
7949.942071
 20
4183.265336
 30
0.0
 11
7546.942071
 21
4183.265336
 31
0.0
  0
LINE
  8
JISSEN
 10
7096.942071
 20
3306.265336
 30
0.0
 11
7137.942071
 21
3306.265336
 31
0.0
  0
LINE
  8
JISSEN
 10
7137.942071
 20
3306.265336
 30
0.0
 11
7146.942071
 21
3291.265336
 31
0.0
  0
LINE
  8
JISSEN
 10
7146.942071
 20
3291.265336
 30
0.0
 11
7546.942071
 21
3291.265336
 31
0.0
  0
LINE
  8
JISSEN
 10
7996.942071
 20
3306.265336
 30
0.0
 11
7955.942071
 21
3306.265336
 31
0.0
  0
LINE
  8
JISSEN
 10
7955.942071
 20
3306.265336
 30
0.0
 11
7946.942071
 21
3291.265336
 31
0.0
  0
LINE
  8
JISSEN
 10
7946.942071
 20
3291.265336
 30
0.0
 11
7546.942071
 21
3291.265336
 31
0.0
  0
LINE
  8
JISSEN
 10
7546.942071
 20
3306.265336
 30
0.0
 11
7955.942071
 21
3306.265336
 31
0.0
  0
LINE
  8
HASEN
 10
7921.942071
 20
4183.265336
 30
0.0
 11
7921.942071
 21
3291.265336
 31
0.0
  0
LINE
  8
ITTEN
 10
7346.942071
 20
4041.265336
 30
0.0
 11
7746.942071
 21
4041.265336
 31
0.0
  0
ARC
  8
JISSEN
 10
7406.942071
 20
4041.265336
 30
0.0
 40
10.0
 50
90.0
 51
270.0
  0
LINE
  8
JISSEN
 10
7406.942071
 20
4051.265336
 30
0.0
 11
7546.942071
 21
4051.265336
 31
0.0
  0
LINE
  8
JISSEN
 10
7406.942071
 20
4031.265336
 30
0.0
 11
7546.942071
 21
4031.265336
 31
0.0
  0
LINE
  8
HASEN
 10
7686.942071
 20
4051.265336
 30
0.0
 11
7546.942071
 21
4051.265336
 31
0.0
  0
LINE
  8
HASEN
 10
7686.942071
 20
4031.265336
 30
0.0
 11
7546.942071
 21
4031.265336
 31
0.0
  0
ARC
  8
HASEN
 10
7686.942071
 20
4041.265336
 30
0.0
 40
10.0
 50
270.0
 51
90.0
  0
LINE
  8
ITTEN
 10
7313.942071
 20
3586.265336
 30
0.0
 11
7779.942071
 21
3586.265336
 31
0.0
  0
ARC
  8
JISSEN
 10
7546.942071
 20
3586.265336
 30
0.0
 40
183.0
 50
90.0
 51
270.0
  0
ARC
  8
HASEN
 10
7546.942071
 20
3586.265336
 30
0.0
 40
183.0
 50
270.0
 51
90.0
  0
CIRCLE
  8
HASEN
 10
7843.173131
 20
4106.265336
 30
0.0
 40
10.0
  0
LINE
  8
SUNPOU
 10
7873.173131
 20
4106.265336
 30
0.0
 11
8229.179424
 21
4106.265336
 31
0.0
  0
LINE
  8
SUNPOU
 10
8026.942071
 20
4206.265336
 30
0.0
 11
8229.179424
 21
4206.265336
 31
0.0
  0
LINE
  8
SUNPOU
 10
8199.179424
 20
4106.265336
 30
0.0
 11
8199.179424
 21
4206.265336
 31
0.0
  0
INSERT
  8
SUNPOU
  2
ARROWANG
 10
8199.179424
 20
4106.265336
 30
0.0
 41
30.0
 42
30.0
 50
270.0
 43
30.0
  0
INSERT
  8
SUNPOU
  2
ARROWANG
 10
8199.179424
 20
4206.265336
 30
0.0
 41
30.0
 42
30.0
 50
90.0
 43
30.0
  0
TEXT
  8
SUNPOU
 10
8229.179424
 20
4066.265336
 30
0.0
 40
60.0
  1
100
 50
90.0
  7
K
 72
     1
 11
8229.179424
 21
4156.265336
 31
0.0
  0
CIRCLE
  8
HASEN
 10
7843.173131
 20
3406.265336
 30
0.0
 40
10.0
  0
LINE
  8
SUNPOU
 10
8026.942071
 20
3306.265336
 30
0.0
 11
8181.423054
 21
3306.265336
 31
0.0
  0
LINE
  8
SUNPOU
 10
7873.173131
 20
3406.265336
 30
0.0
 11
8181.423054
 21
3406.265336
 31
0.0
  0
LINE
  8
SUNPOU
 10
8151.423054
 20
3306.265336
 30
0.0
 11
8151.423054
 21
3406.265336
 31
0.0
  0
INSERT
  8
SUNPOU
  2
ARROWANG
 10
8151.423054
 20
3306.265336
 30
0.0
 41
30.0
 42
30.0
 50
270.0
 43
30.0
  0
INSERT
  8
SUNPOU
  2
ARROWANG
 10
8151.423054
 20
3406.265336
 30
0.0
 41
30.0
 42
30.0
 50
90.0
 43
30.0
  0
TEXT
  8
SUNPOU
 10
8106.423054
 20
3266.265336
 30
0.0
 40
60.0
  1
100
 50
90.0
  7
K
 72
     1
 11
8106.423054
 21
3356.265336
 31
0.0
  0
LINE
  8
SUNPOU
 10
7201.942071
 20
4183.265336
 30
0.0
 11
7346.133737
 21
4183.265336
 31
0.0
  0
LINE
  8
SUNPOU
 10
7316.133737
 20
4206.265336
 30
0.0
 11
7316.133737
 21
4183.265336
 31
0.0
  0
INSERT
  8
SUNPOU
  2
ARROWANG
 10
7316.133737
 20
4206.265336
 30
0.0
 41
30.0
 42
30.0
 50
270.0
 43
30.0
  0
LINE
  8
SUNPOU
 10
7316.133737
 20
4206.265336
 30
0.0
 11
7316.133737
 21
4338.265336
 31
0.0
  0
TEXT
  8
SUNPOU
 10
7286.214696
 20
4052.458341
 30
0.0
 40
60.0
  1
23
 50
90.0
  7
K
  0
LINE
  8
SUNPOU
 10
7316.133737
 20
4206.265336
 30
0.0
 11
7316.133737
 21
4266.265336
 31
0.0
  0
LINE
  8
SUNPOU
 10
7621.942071
 20
3291.265336
 30
0.0
 11
7896.155702
 21
3291.265336
 31
0.0
  0
INSERT
  8
SUNPOU
  2
ARROWANG
 10
7866.155702
 20
3291.265336
 30
0.0
 41
30.0
 42
30.0
 50
270.0
 43
30.0
  0
TEXT
  8
SUNPOU
 10
7811.101729
 20
3603.568813
 30
0.0
 40
60.0
  1
750
 50
90.0
  7
K
 72
     1
 11
7811.101729
 21
3689.283098
 31
0.0
  0
LINE
  8
SUNPOU
 10
7866.155702
 20
3291.265336
 30
0.0
 11
7866.155702
 21
4041.265336
 31
0.0
  0
INSERT
  8
SUNPOU
  2
ARROWANG
 10
7866.155702
 20
4041.265336
 30
0.0
 41
30.0
 42
30.0
 50
90.0
 43
30.0
  0
LINE
  8
SUNPOU
 10
7726.942071
 20
4041.265336
 30
0.0
 11
7896.155702
 21
4041.265336
 31
0.0
  0
LINE
  8
SUNPOU
 10
7201.942071
 20
3291.265336
 30
0.0
 11
7346.133737
 21
3291.265336
 31
0.0
  0
LINE
  8
SUNPOU
 10
7286.133737
 20
4183.265336
 30
0.0
 11
7286.133737
 21
4183.265336
 31
0.0
  0
INSERT
  8
SUNPOU
  2
ARROWANG
 10
7316.133737
 20
4183.265336
 30
0.0
 41
30.0
 42
30.0
 50
90.0
 43
30.0
  0
TEXT
  8
SUNPOU
 10
5471.133737
 20
3468.693907
 30
0.0
 40
60.0
  1
1192
 50
90.0
  7
K
 72
     1
 11
5471.133737
 21
3587.265336
 31
0.0
  0
INSERT
  8
SUNPOU
  2
ARROWANG
 10
5516.133737
 20
4183.265336
 30
0.0
 41
30.0
 42
30.0
 50
90.0
 43
30.0
  0
INSERT
  8
SUNPOU
  2
ARROWANG
 10
5516.133737
 20
2991.265336
 30
0.0
 41
30.0
 42
30.0
 50
270.0
 43
30.0
  0
LINE
  8
SUNPOU
 10
5516.133737
 20
2991.265336
 30
0.0
 11
5516.133737
 21
4183.265336
 31
0.0
  0
LINE
  8
SUNPOU
 10
5486.133737
 20
4183.265336
 30
0.0
 11
5486.133737
 21
4183.265336
 31
0.0
  0
LINE
  8
SUNPOU
 10
5401.942071
 20
2991.265336
 30
0.0
 11
5546.133737
 21
2991.265336
 31
0.0
  0
LINE
  8
HASEN
 10
4356.942071
 20
4206.265336
 30
0.0
 11
4349.942071
 21
4183.265336
 31
0.0
  0
TEXT
  8
SUNPOU
 10
5038.280088
 20
3487.693907
 30
0.0
 40
60.0
  1
1200
 50
90.0
  7
K
 72
     1
 11
5038.280088
 21
3606.265336
 31
0.0
  0
INSERT
  8
SUNPOU
  2
ARROWANG
 10
5083.280088
 20
4206.265336
 30
0.0
 41
30.0
 42
30.0
 50
90.0
 43
30.0
  0
INSERT
  8
SUNPOU
  2
ARROWANG
 10
5083.280088
 20
3006.265336
 30
0.0
 41
30.0
 42
30.0
 50
270.0
 43
30.0
  0
LINE
  8
SUNPOU
 10
5083.280088
 20
3006.265336
 30
0.0
 11
5083.280088
 21
4206.265336
 31
0.0
  0
LINE
  8
SUNPOU
 10
5266.942071
 20
4206.265336
 30
0.0
 11
5053.280088
 21
4206.265336
 31
0.0
  0
LINE
  8
SUNPOU
 10
5266.942071
 20
3006.265336
 30
0.0
 11
5053.280088
 21
3006.265336
 31
0.0
  0
TEXT
  8
SUNPOU
 10
6021.155702
 20
3805.55105
 30
0.0
 40
60.0
  1
300
 50
90.0
  7
K
 72
     1
 11
6021.155702
 21
3891.265336
 31
0.0
  0
INSERT
  8
SUNPOU
  2
ARROWANG
 10
6066.155702
 20
4041.265336
 30
0.0
 41
30.0
 42
30.0
 50
90.0
 43
30.0
  0
INSERT
  8
SUNPOU
  2
ARROWANG
 10
6066.155702
 20
3741.265336
 30
0.0
 41
30.0
 42
30.0
 50
270.0
 43
30.0
  0
LINE
  8
SUNPOU
 10
5926.942071
 20
4041.265336
 30
0.0
 11
6096.155702
 21
4041.265336
 31
0.0
  0
LINE
  8
SUNPOU
 10
6066.155702
 20
3741.265336
 30
0.0
 11
6066.155702
 21
4041.265336
 31
0.0
  0
INSERT
  8
SUNPOU
  2
ARROWANG
 10
6066.155702
 20
3741.265336
 30
0.0
 41
30.0
 42
30.0
 50
90.0
 43
30.0
  0
LINE
  8
SUNPOU
 10
5926.942071
 20
3741.265336
 30
0.0
 11
6096.155702
 21
3741.265336
 31
0.0
  0
LINE
  8
SUNPOU
 10
6066.155702
 20
2991.265336
 30
0.0
 11
6066.155702
 21
3741.265336
 31
0.0
  0
TEXT
  8
SUNPOU
 10
6011.101729
 20
3303.568813
 30
0.0
 40
60.0
  1
750
 50
90.0
  7
K
 72
     1
 11
6011.101729
 21
3389.283098
 31
0.0
  0
INSERT
  8
SUNPOU
  2
ARROWANG
 10
6066.155702
 20
2991.265336
 30
0.0
 41
30.0
 42
30.0
 50
270.0
 43
30.0
  0
LINE
  8
SUNPOU
 10
5821.942071
 20
2991.265336
 30
0.0
 11
6096.155702
 21
2991.265336
 31
0.0
  0
LINE
  8
SUNPOU
 10
5516.133737
 20
4206.265336
 30
0.0
 11
5516.133737
 21
4266.265336
 31
0.0
  0
TEXT
  8
SUNPOU
 10
5486.214696
 20
4052.458341
 30
0.0
 40
60.0
  1
23
 50
90.0
  7
K
  0
LINE
  8
SUNPOU
 10
5516.133737
 20
4206.265336
 30
0.0
 11
5516.133737
 21
4338.265336
 31
0.0
  0
INSERT
  8
SUNPOU
  2
ARROWANG
 10
5516.133737
 20
4206.265336
 30
0.0
 41
30.0
 42
30.0
 50
270.0
 43
30.0
  0
LINE
  8
SUNPOU
 10
4387.692529
 20
4206.712472
 30
0.0
 11
4622.024925
 21
4206.712472
 31
0.0
  0
LINE
  8
SUNPOU
 10
5516.133737
 20
4206.265336
 30
0.0
 11
5516.133737
 21
4183.265336
 31
0.0
  0
LINE
  8
SUNPOU
 10
5401.942071
 20
4183.265336
 30
0.0
 11
5546.133737
 21
4183.265336
 31
0.0
  0
TEXT
  8
SUNPOU
 10
6306.423054
 20
2966.265336
 30
0.0
 40
60.0
  1
100
 50
90.0
  7
K
 72
     1
 11
6306.423054
 21
3056.265336
 31
0.0
  0
INSERT
  8
SUNPOU
  2
ARROWANG
 10
6351.423054
 20
3106.265336
 30
0.0
 41
30.0
 42
30.0
 50
90.0
 43
30.0
  0
INSERT
  8
SUNPOU
  2
ARROWANG
 10
6351.423054
 20
3006.265336
 30
0.0
 41
30.0
 42
30.0
 50
270.0
 43
30.0
  0
LINE
  8
SUNPOU
 10
6351.423054
 20
3006.265336
 30
0.0
 11
6351.423054
 21
3106.265336
 31
0.0
  0
LINE
  8
SUNPOU
 10
6073.173131
 20
3106.265336
 30
0.0
 11
6381.423054
 21
3106.265336
 31
0.0
  0
LINE
  8
SUNPOU
 10
6226.942071
 20
3006.265336
 30
0.0
 11
6381.423054
 21
3006.265336
 31
0.0
  0
CIRCLE
  8
HASEN
 10
6043.173131
 20
3106.265336
 30
0.0
 40
10.0
  0
TEXT
  8
SUNPOU
 10
6354.179424
 20
4066.265336
 30
0.0
 40
60.0
  1
100
 50
90.0
  7
K
 72
     1
 11
6354.179424
 21
4156.265336
 31
0.0
  0
INSERT
  8
SUNPOU
  2
ARROWANG
 10
6399.179424
 20
4206.265336
 30
0.0
 41
30.0
 42
30.0
 50
90.0
 43
30.0
  0
INSERT
  8
SUNPOU
  2
ARROWANG
 10
6399.179424
 20
4106.265336
 30
0.0
 41
30.0
 42
30.0
 50
270.0
 43
30.0
  0
LINE
  8
SUNPOU
 10
6399.179424
 20
4106.265336
 30
0.0
 11
6399.179424
 21
4206.265336
 31
0.0
  0
LINE
  8
SUNPOU
 10
6226.942071
 20
4206.265336
 30
0.0
 11
6429.179424
 21
4206.265336
 31
0.0
  0
LINE
  8
SUNPOU
 10
6073.173131
 20
4106.265336
 30
0.0
 11
6429.179424
 21
4106.265336
 31
0.0
  0
CIRCLE
  8
HASEN
 10
6043.173131
 20
4106.265336
 30
0.0
 40
10.0
  0
ARC
  8
HASEN
 10
5746.942071
 20
3286.265336
 30
0.0
 40
183.0
 50
270.0
 51
90.0
  0
ARC
  8
JISSEN
 10
5746.942071
 20
3286.265336
 30
0.0
 40
183.0
 50
90.0
 51
270.0
  0
LINE
  8
ITTEN
 10
5513.942071
 20
3286.265336
 30
0.0
 11
5979.942071
 21
3286.265336
 31
0.0
  0
LINE
  8
ITTEN
 10
5546.942071
 20
3741.265336
 30
0.0
 11
5946.942071
 21
3741.265336
 31
0.0
  0
ARC
  8
JISSEN
 10
5606.942071
 20
3741.265336
 30
0.0
 40
10.0
 50
90.0
 51
270.0
  0
LINE
  8
JISSEN
 10
5606.942071
 20
3751.265336
 30
0.0
 11
5746.942071
 21
3751.265336
 31
0.0
  0
LINE
  8
JISSEN
 10
5606.942071
 20
3731.265336
 30
0.0
 11
5746.942071
 21
3731.265336
 31
0.0
  0
LINE
  8
HASEN
 10
5886.942071
 20
3751.265336
 30
0.0
 11
5746.942071
 21
3751.265336
 31
0.0
  0
LINE
  8
HASEN
 10
5886.942071
 20
3731.265336
 30
0.0
 11
5746.942071
 21
3731.265336
 31
0.0
  0
ARC
  8
HASEN
 10
5886.942071
 20
3741.265336
 30
0.0
 40
10.0
 50
270.0
 51
90.0
  0
ARC
  8
HASEN
 10
5886.942071
 20
4041.265336
 30
0.0
 40
10.0
 50
270.0
 51
90.0
  0
LINE
  8
HASEN
 10
5886.942071
 20
4031.265336
 30
0.0
 11
5746.942071
 21
4031.265336
 31
0.0
  0
LINE
  8
HASEN
 10
5886.942071
 20
4051.265336
 30
0.0
 11
5746.942071
 21
4051.265336
 31
0.0
  0
LINE
  8
JISSEN
 10
5606.942071
 20
4031.265336
 30
0.0
 11
5746.942071
 21
4031.265336
 31
0.0
  0
LINE
  8
JISSEN
 10
5606.942071
 20
4051.265336
 30
0.0
 11
5746.942071
 21
4051.265336
 31
0.0
  0
ARC
  8
JISSEN
 10
5606.942071
 20
4041.265336
 30
0.0
 40
10.0
 50
90.0
 51
270.0
  0
LINE
  8
ITTEN
 10
5546.942071
 20
4041.265336
 30
0.0
 11
5946.942071
 21
4041.265336
 31
0.0
  0
LINE
  8
HASEN
 10
6121.942071
 20
4183.265336
 30
0.0
 11
6121.942071
 21
2991.265336
 31
0.0
  0
LINE
  8
JISSEN
 10
5746.942071
 20
3006.265336
 30
0.0
 11
6155.942071
 21
3006.265336
 31
0.0
  0
LINE
  8
JISSEN
 10
6146.942071
 20
2991.265336
 30
0.0
 11
5746.942071
 21
2991.265336
 31
0.0
  0
LINE
  8
JISSEN
 10
6155.942071
 20
3006.265336
 30
0.0
 11
6146.942071
 21
2991.265336
 31
0.0
  0
LINE
  8
JISSEN
 10
6196.942071
 20
3006.265336
 30
0.0
 11
6155.942071
 21
3006.265336
 31
0.0
  0
LINE
  8
JISSEN
 10
5346.942071
 20
2991.265336
 30
0.0
 11
5746.942071
 21
2991.265336
 31
0.0
  0
LINE
  8
JISSEN
 10
5337.942071
 20
3006.265336
 30
0.0
 11
5346.942071
 21
2991.265336
 31
0.0
  0
LINE
  8
JISSEN
 10
5296.942071
 20
3006.265336
 30
0.0
 11
5337.942071
 21
3006.265336
 31
0.0
  0
LINE
  8
HASEN
 10
6149.942071
 20
4183.265336
 30
0.0
 11
5746.942071
 21
4183.265336
 31
0.0
  0
LINE
  8
HASEN
 10
6156.942071
 20
4206.265336
 30
0.0
 11
6149.942071
 21
4183.265336
 31
0.0
  0
LINE
  8
JISSEN
 10
5343.942071
 20
4183.265336
 30
0.0
 11
5746.942071
 21
4183.265336
 31
0.0
  0
LINE
  8
JISSEN
 10
5336.942071
 20
4206.265336
 30
0.0
 11
5343.942071
 21
4183.265336
 31
0.0
  0
LINE
  8
JISSEN
 10
5371.942071
 20
4183.265336
 30
0.0
 11
5371.942071
 21
2991.265336
 31
0.0
  0
LINE
  8
JISSEN
 10
5296.942071
 20
4206.265336
 30
0.0
 11
5296.942071
 21
3006.265336
 31
0.0
  0
LINE
  8
JISSEN
 10
6196.942071
 20
4206.265336
 30
0.0
 11
6196.942071
 21
3006.265336
 31
0.0
  0
LINE
  8
JISSEN
 10
5296.942071
 20
4206.265336
 30
0.0
 11
5746.942071
 21
4206.265336
 31
0.0
  0
LINE
  8
ITTEN
 10
5746.942071
 20
4256.265336
 30
0.0
 11
5746.942071
 21
2941.265336
 31
0.0
  0
LINE
  8
SUNPOU
 10
5401.942071
 20
2991.265336
 30
0.0
 11
5546.133737
 21
2991.265336
 31
0.0
  0
LINE
  8
SUNPOU
 10
5486.133737
 20
4183.265336
 30
0.0
 11
5486.133737
 21
4183.265336
 31
0.0
  0
TEXT
  8
SUNPOU
 10
3671.133737
 20
3318.693907
 30
0.0
 40
60.0
  1
1492
 50
90.0
  7
K
 72
     1
 11
3671.133737
 21
3437.265336
 31
0.0
  0
INSERT
  8
SUNPOU
  2
ARROWANG
 10
3716.133737
 20
4183.265336
 30
0.0
 41
30.0
 42
30.0
 50
90.0
 43
30.0
  0
INSERT
  8
SUNPOU
  2
ARROWANG
 10
3716.133737
 20
2691.265336
 30
0.0
 41
30.0
 42
30.0
 50
270.0
 43
30.0
  0
LINE
  8
SUNPOU
 10
3716.133737
 20
2691.265336
 30
0.0
 11
3716.133737
 21
4183.265336
 31
0.0
  0
LINE
  8
SUNPOU
 10
3686.133737
 20
4183.265336
 30
0.0
 11
3686.133737
 21
4183.265336
 31
0.0
  0
LINE
  8
SUNPOU
 10
3601.942071
 20
2691.265336
 30
0.0
 11
3746.133737
 21
2691.265336
 31
0.0
  0
TEXT
  8
SUNPOU
 10
3187.77113
 20
3337.693907
 30
0.0
 40
60.0
  1
1500
 50
90.0
  7
K
 72
     1
 11
3187.77113
 21
3456.265336
 31
0.0
  0
INSERT
  8
SUNPOU
  2
ARROWANG
 10
3232.77113
 20
4206.265336
 30
0.0
 41
30.0
 42
30.0
 50
90.0
 43
30.0
  0
INSERT
  8
SUNPOU
  2
ARROWANG
 10
3232.77113
 20
2706.265336
 30
0.0
 41
30.0
 42
30.0
 50
270.0
 43
30.0
  0
LINE
  8
SUNPOU
 10
3232.77113
 20
2706.265336
 30
0.0
 11
3232.77113
 21
4206.265336
 31
0.0
  0
LINE
  8
SUNPOU
 10
3466.942071
 20
4206.265336
 30
0.0
 11
3202.77113
 21
4206.265336
 31
0.0
  0
LINE
  8
SUNPOU
 10
3367.919855
 20
2706.265336
 30
0.0
 11
3202.77113
 21
2706.265336
 31
0.0
  0
LINE
  8
ITTEN
 10
3946.942071
 20
4256.265336
 30
0.0
 11
3946.942071
 21
2641.265336
 31
0.0
  0
LINE
  8
JISSEN
 10
3496.942071
 20
4206.265336
 30
0.0
 11
3946.942071
 21
4206.265336
 31
0.0
  0
LINE
  8
JISSEN
 10
4396.942071
 20
4206.265336
 30
0.0
 11
4396.942071
 21
2706.265336
 31
0.0
  0
LINE
  8
JISSEN
 10
3496.942071
 20
4206.265336
 30
0.0
 11
3496.942071
 21
2706.265336
 31
0.0
  0
LINE
  8
JISSEN
 10
3571.942071
 20
4183.265336
 30
0.0
 11
3571.942071
 21
2691.265336
 31
0.0
  0
LINE
  8
JISSEN
 10
3536.942071
 20
4206.265336
 30
0.0
 11
3543.942071
 21
4183.265336
 31
0.0
  0
LINE
  8
JISSEN
 10
3543.942071
 20
4183.265336
 30
0.0
 11
3946.942071
 21
4183.265336
 31
0.0
  0
LINE
  8
HASEN
 10
4349.942071
 20
4183.265336
 30
0.0
 11
3946.942071
 21
4183.265336
 31
0.0
  0
LINE
  8
JISSEN
 10
3496.942071
 20
2706.265336
 30
0.0
 11
3537.942071
 21
2706.265336
 31
0.0
  0
LINE
  8
JISSEN
 10
3537.942071
 20
2706.265336
 30
0.0
 11
3546.942071
 21
2691.265336
 31
0.0
  0
LINE
  8
JISSEN
 10
3546.942071
 20
2691.265336
 30
0.0
 11
3946.942071
 21
2691.265336
 31
0.0
  0
LINE
  8
JISSEN
 10
4396.942071
 20
2706.265336
 30
0.0
 11
4355.942071
 21
2706.265336
 31
0.0
  0
LINE
  8
JISSEN
 10
4355.942071
 20
2706.265336
 30
0.0
 11
4346.942071
 21
2691.265336
 31
0.0
  0
LINE
  8
JISSEN
 10
4346.942071
 20
2691.265336
 30
0.0
 11
3946.942071
 21
2691.265336
 31
0.0
  0
LINE
  8
JISSEN
 10
3946.942071
 20
2706.265336
 30
0.0
 11
4355.942071
 21
2706.265336
 31
0.0
  0
LINE
  8
HASEN
 10
4314.787572
 20
4183.265336
 30
0.0
 11
4314.787572
 21
2691.265336
 31
0.0
  0
LINE
  8
ITTEN
 10
3746.942071
 20
4041.265336
 30
0.0
 11
4146.942071
 21
4041.265336
 31
0.0
  0
ARC
  8
JISSEN
 10
3806.942071
 20
4041.265336
 30
0.0
 40
10.0
 50
90.0
 51
270.0
  0
LINE
  8
JISSEN
 10
3806.942071
 20
4051.265336
 30
0.0
 11
3946.942071
 21
4051.265336
 31
0.0
  0
LINE
  8
JISSEN
 10
3806.942071
 20
4031.265336
 30
0.0
 11
3946.942071
 21
4031.265336
 31
0.0
  0
LINE
  8
HASEN
 10
4086.942071
 20
4051.265336
 30
0.0
 11
3946.942071
 21
4051.265336
 31
0.0
  0
LINE
  8
HASEN
 10
4086.942071
 20
4031.265336
 30
0.0
 11
3946.942071
 21
4031.265336
 31
0.0
  0
ARC
  8
HASEN
 10
4086.942071
 20
4041.265336
 30
0.0
 40
10.0
 50
270.0
 51
90.0
  0
ARC
  8
HASEN
 10
4086.942071
 20
3741.265336
 30
0.0
 40
10.0
 50
270.0
 51
90.0
  0
LINE
  8
HASEN
 10
4086.942071
 20
3731.265336
 30
0.0
 11
3946.942071
 21
3731.265336
 31
0.0
  0
LINE
  8
HASEN
 10
4086.942071
 20
3751.265336
 30
0.0
 11
3946.942071
 21
3751.265336
 31
0.0
  0
LINE
  8
JISSEN
 10
3806.942071
 20
3731.265336
 30
0.0
 11
3946.942071
 21
3731.265336
 31
0.0
  0
LINE
  8
JISSEN
 10
3806.942071
 20
3751.265336
 30
0.0
 11
3946.942071
 21
3751.265336
 31
0.0
  0
ARC
  8
JISSEN
 10
3806.942071
 20
3741.265336
 30
0.0
 40
10.0
 50
90.0
 51
270.0
  0
LINE
  8
ITTEN
 10
3746.942071
 20
3741.265336
 30
0.0
 11
4146.942071
 21
3741.265336
 31
0.0
  0
ARC
  8
HASEN
 10
4086.942071
 20
3441.265336
 30
0.0
 40
10.0
 50
270.0
 51
90.0
  0
LINE
  8
HASEN
 10
4086.942071
 20
3431.265336
 30
0.0
 11
3946.942071
 21
3431.265336
 31
0.0
  0
LINE
  8
HASEN
 10
4086.942071
 20
3451.265336
 30
0.0
 11
3946.942071
 21
3451.265336
 31
0.0
  0
LINE
  8
JISSEN
 10
3806.942071
 20
3431.265336
 30
0.0
 11
3946.942071
 21
3431.265336
 31
0.0
  0
LINE
  8
JISSEN
 10
3806.942071
 20
3451.265336
 30
0.0
 11
3946.942071
 21
3451.265336
 31
0.0
  0
ARC
  8
JISSEN
 10
3806.942071
 20
3441.265336
 30
0.0
 40
10.0
 50
90.0
 51
270.0
  0
LINE
  8
ITTEN
 10
3746.942071
 20
3441.265336
 30
0.0
 11
4146.942071
 21
3441.265336
 31
0.0
  0
LINE
  8
ITTEN
 10
3713.942071
 20
2986.265336
 30
0.0
 11
4179.942071
 21
2986.265336
 31
0.0
  0
ARC
  8
JISSEN
 10
3946.942071
 20
2986.265336
 30
0.0
 40
183.0
 50
90.0
 51
270.0
  0
ARC
  8
HASEN
 10
3946.942071
 20
2986.265336
 30
0.0
 40
183.0
 50
270.0
 51
90.0
  0
LINE
  8
SUNPOU
 10
3541.942071
 20
2691.265336
 30
0.0
 11
3397.919855
 21
2691.265336
 31
0.0
  0
LINE
  8
SUNPOU
 10
3466.942071
 20
2706.265336
 30
0.0
 11
3397.919855
 21
2706.265336
 31
0.0
  0
LINE
  8
SUNPOU
 10
3427.919855
 20
2691.265336
 30
0.0
 11
3427.919855
 21
2706.265336
 31
0.0
  0
INSERT
  8
SUNPOU
  2
ARROWANG
 10
3427.919855
 20
2691.265336
 30
0.0
 41
30.0
 42
30.0
 50
90.0
 43
30.0
  0
INSERT
  8
SUNPOU
  2
ARROWANG
 10
3427.919855
 20
2706.265336
 30
0.0
 41
30.0
 42
30.0
 50
270.0
 43
30.0
  0
LINE
  8
SUNPOU
 10
3427.919855
 20
2706.265336
 30
0.0
 11
3427.919855
 21
2777.362205
 31
0.0
  0
LINE
  8
SUNPOU
 10
3427.919855
 20
2691.265336
 30
0.0
 11
3427.919856
 21
2631.265336
 31
0.0
  0
TEXT
  8
SUNPOU
 10
3382.919855
 20
2655.933633
 30
0.0
 40
60.0
  1
15
 50
90.0
  7
K
 72
     1
 11
3382.919855
 21
2717.362205
 31
0.0
  0
CIRCLE
  8
HASEN
 10
4236.018632
 20
4106.265336
 30
0.0
 40
10.0
  0
LINE
  8
SUNPOU
 10
4266.018632
 20
4106.265336
 30
0.0
 11
4622.024925
 21
4106.265336
 31
0.0
  0
LINE
  8
SUNPOU
 10
4592.024925
 20
4106.265336
 30
0.0
 11
4592.024925
 21
4206.265336
 31
0.0
  0
INSERT
  8
SUNPOU
  2
ARROWANG
 10
4592.024925
 20
4106.265336
 30
0.0
 41
30.0
 42
30.0
 50
270.0
 43
30.0
  0
INSERT
  8
SUNPOU
  2
ARROWANG
 10
4592.024925
 20
4206.265336
 30
0.0
 41
30.0
 42
30.0
 50
90.0
 43
30.0
  0
TEXT
  8
SUNPOU
 10
4554.179424
 20
4066.265336
 30
0.0
 40
60.0
  1
100
 50
90.0
  7
K
 72
     1
 11
4554.179424
 21
4156.265336
 31
0.0
  0
CIRCLE
  8
HASEN
 10
4236.018632
 20
2804.21443
 30
0.0
 40
10.0
  0
LINE
  8
SUNPOU
 10
4426.942071
 20
2706.265336
 30
0.0
 11
4581.423054
 21
2706.265336
 31
0.0
  0
LINE
  8
SUNPOU
 10
4273.173131
 20
2806.265336
 30
0.0
 11
4581.423054
 21
2806.265336
 31
0.0
  0
LINE
  8
SUNPOU
 10
4551.423054
 20
2706.265336
 30
0.0
 11
4551.423054
 21
2806.265336
 31
0.0
  0
INSERT
  8
SUNPOU
  2
ARROWANG
 10
4551.423054
 20
2706.265336
 30
0.0
 41
30.0
 42
30.0
 50
270.0
 43
30.0
  0
INSERT
  8
SUNPOU
  2
ARROWANG
 10
4551.423054
 20
2806.265336
 30
0.0
 41
30.0
 42
30.0
 50
90.0
 43
30.0
  0
TEXT
  8
SUNPOU
 10
4506.423054
 20
2666.265336
 30
0.0
 40
60.0
  1
100
 50
90.0
  7
K
 72
     1
 11
4506.423054
 21
2756.265336
 31
0.0
  0
LINE
  8
SUNPOU
 10
3601.942071
 20
4183.265336
 30
0.0
 11
3746.133737
 21
4183.265336
 31
0.0
  0
INSERT
  8
SUNPOU
  2
ARROWANG
 10
3716.133737
 20
4183.265336
 30
0.0
 41
30.0
 42
30.0
 50
90.0
 43
30.0
  0
LINE
  8
SUNPOU
 10
3716.133737
 20
4206.265336
 30
0.0
 11
3716.133737
 21
4183.265336
 31
0.0
  0
LINE
  8
SUNPOU
 10
3566.942071
 20
4206.265336
 30
0.0
 11
3746.133737
 21
4206.265336
 31
0.0
  0
INSERT
  8
SUNPOU
  2
ARROWANG
 10
3716.133737
 20
4183.265336
 30
0.0
 41
30.0
 42
30.0
 50
90.0
 43
30.0
  0
INSERT
  8
SUNPOU
  2
ARROWANG
 10
3716.133737
 20
4206.265336
 30
0.0
 41
30.0
 42
30.0
 50
270.0
 43
30.0
  0
LINE
  8
SUNPOU
 10
3716.133737
 20
4206.265336
 30
0.0
 11
3716.133737
 21
4338.265336
 31
0.0
  0
TEXT
  8
SUNPOU
 10
3686.214696
 20
4052.458341
 30
0.0
 40
60.0
  1
23
 50
90.0
  7
K
  0
LINE
  8
SUNPOU
 10
3716.133737
 20
4183.265336
 30
0.0
 11
3716.133737
 21
4123.265336
 31
0.0
  0
LINE
  8
SUNPOU
 10
3716.133737
 20
4206.265336
 30
0.0
 11
3716.133737
 21
4266.265336
 31
0.0
  0
LINE
  8
SUNPOU
 10
3901.942071
 20
2691.265336
 30
0.0
 11
4221.155702
 21
2691.265336
 31
0.0
  0
INSERT
  8
SUNPOU
  2
ARROWANG
 10
4259.001202
 20
2693.316242
 30
0.0
 41
30.0
 42
30.0
 50
270.0
 43
30.0
  0
TEXT
  8
SUNPOU
 10
4221.155702
 20
2980.55105
 30
0.0
 40
60.0
  1
750
 50
90.0
  7
K
 72
     1
 11
4221.155702
 21
3066.265336
 31
0.0
  0
LINE
  8
SUNPOU
 10
4259.001202
 20
2693.316242
 30
0.0
 11
4259.001202
 21
3443.316242
 31
0.0
  0
LINE
  8
SUNPOU
 10
4126.942071
 20
3441.265336
 30
0.0
 11
4296.155702
 21
3441.265336
 31
0.0
  0
INSERT
  8
SUNPOU
  2
ARROWANG
 10
4259.001202
 20
3441.265336
 30
0.0
 41
30.0
 42
30.0
 50
90.0
 43
30.0
  0
LINE
  8
SUNPOU
 10
4259.001202
 20
3441.265336
 30
0.0
 11
4259.001202
 21
3741.265336
 31
0.0
  0
LINE
  8
SUNPOU
 10
4126.942071
 20
3741.265336
 30
0.0
 11
4296.155702
 21
3741.265336
 31
0.0
  0
INSERT
  8
SUNPOU
  2
ARROWANG
 10
4259.001202
 20
3441.265336
 30
0.0
 41
30.0
 42
30.0
 50
270.0
 43
30.0
  0
INSERT
  8
SUNPOU
  2
ARROWANG
 10
4259.001202
 20
3741.265336
 30
0.0
 41
30.0
 42
30.0
 50
90.0
 43
30.0
  0
TEXT
  8
SUNPOU
 10
4221.155702
 20
3505.55105
 30
0.0
 40
60.0
  1
300
 50
90.0
  7
K
 72
     1
 11
4221.155702
 21
3591.265336
 31
0.0
  0
LINE
  8
SUNPOU
 10
4259.001202
 20
3741.265336
 30
0.0
 11
4259.001202
 21
4041.265336
 31
0.0
  0
LINE
  8
SUNPOU
 10
4126.942071
 20
4041.265336
 30
0.0
 11
4296.155702
 21
4041.265336
 31
0.0
  0
INSERT
  8
SUNPOU
  2
ARROWANG
 10
4259.001202
 20
3741.265336
 30
0.0
 41
30.0
 42
30.0
 50
270.0
 43
30.0
  0
INSERT
  8
SUNPOU
  2
ARROWANG
 10
4259.001202
 20
4041.265336
 30
0.0
 41
30.0
 42
30.0
 50
90.0
 43
30.0
  0
TEXT
  8
SUNPOU
 10
4221.155702
 20
3805.55105
 30
0.0
 40
60.0
  1
300
 50
90.0
  7
K
 72
     1
 11
4221.155702
 21
3891.265336
 31
0.0
  0
TEXT
  8
SUNPOU
 10
2346.155702
 20
3805.55105
 30
0.0
 40
60.0
  1
300
 50
90.0
  7
K
 72
     1
 11
2346.155702
 21
3891.265336
 31
0.0
  0
INSERT
  8
SUNPOU
  2
ARROWANG
 10
2391.155702
 20
4041.265336
 30
0.0
 41
30.0
 42
30.0
 50
90.0
 43
30.0
  0
INSERT
  8
SUNPOU
  2
ARROWANG
 10
2391.155702
 20
3741.265336
 30
0.0
 41
30.0
 42
30.0
 50
270.0
 43
30.0
  0
LINE
  8
SUNPOU
 10
2251.942071
 20
4041.265336
 30
0.0
 11
2421.155702
 21
4041.265336
 31
0.0
  0
LINE
  8
SUNPOU
 10
2391.155702
 20
3741.265336
 30
0.0
 11
2391.155702
 21
4041.265336
 31
0.0
  0
TEXT
  8
SUNPOU
 10
2346.155702
 20
3505.55105
 30
0.0
 40
60.0
  1
300
 50
90.0
  7
K
 72
     1
 11
2346.155702
 21
3591.265336
 31
0.0
  0
INSERT
  8
SUNPOU
  2
ARROWANG
 10
2391.155702
 20
3741.265336
 30
0.0
 41
30.0
 42
30.0
 50
90.0
 43
30.0
  0
INSERT
  8
SUNPOU
  2
ARROWANG
 10
2391.155702
 20
3441.265336
 30
0.0
 41
30.0
 42
30.0
 50
270.0
 43
30.0
  0
LINE
  8
SUNPOU
 10
2251.942071
 20
3741.265336
 30
0.0
 11
2421.155702
 21
3741.265336
 31
0.0
  0
LINE
  8
SUNPOU
 10
2391.155702
 20
3441.265336
 30
0.0
 11
2391.155702
 21
3741.265336
 31
0.0
  0
TEXT
  8
SUNPOU
 10
2346.155702
 20
3205.55105
 30
0.0
 40
60.0
  1
300
 50
90.0
  7
K
 72
     1
 11
2346.155702
 21
3291.265336
 31
0.0
  0
INSERT
  8
SUNPOU
  2
ARROWANG
 10
2391.155702
 20
3441.265336
 30
0.0
 41
30.0
 42
30.0
 50
90.0
 43
30.0
  0
INSERT
  8
SUNPOU
  2
ARROWANG
 10
2391.155702
 20
3141.265336
 30
0.0
 41
30.0
 42
30.0
 50
270.0
 43
30.0
  0
LINE
  8
SUNPOU
 10
2251.942071
 20
3441.265336
 30
0.0
 11
2421.155702
 21
3441.265336
 31
0.0
  0
LINE
  8
SUNPOU
 10
2391.155702
 20
3141.265336
 30
0.0
 11
2391.155702
 21
3441.265336
 31
0.0
  0
TEXT
  8
SUNPOU
 10
2346.155702
 20
2680.55105
 30
0.0
 40
60.0
  1
750
 50
90.0
  7
K
 72
     1
 11
2346.155702
 21
2766.265336
 31
0.0
  0
INSERT
  8
SUNPOU
  2
ARROWANG
 10
2391.155702
 20
3141.265336
 30
0.0
 41
30.0
 42
30.0
 50
90.0
 43
30.0
  0
INSERT
  8
SUNPOU
  2
ARROWANG
 10
2391.155702
 20
2391.265336
 30
0.0
 41
30.0
 42
30.0
 50
270.0
 43
30.0
  0
LINE
  8
SUNPOU
 10
2391.155702
 20
2391.265336
 30
0.0
 11
2391.155702
 21
3141.265336
 31
0.0
  0
LINE
  8
SUNPOU
 10
2251.942071
 20
3141.265336
 30
0.0
 11
2421.155702
 21
3141.265336
 31
0.0
  0
LINE
  8
SUNPOU
 10
2146.942071
 20
2391.265336
 30
0.0
 11
2421.155702
 21
2391.265336
 31
0.0
  0
LINE
  8
SUNPOU
 10
1916.133737
 20
4206.265336
 30
0.0
 11
1916.133737
 21
4266.265336
 31
0.0
  0
LINE
  8
SUNPOU
 10
1916.133737
 20
4183.265336
 30
0.0
 11
1916.133737
 21
4123.265336
 31
0.0
  0
TEXT
  8
SUNPOU
 10
1886.214696
 20
4052.458341
 30
0.0
 40
60.0
  1
23
 50
90.0
  7
K
  0
INSERT
  8
SUNPOU
  2
ARROWANG
 10
1916.133737
 20
4206.265336
 30
0.0
 41
30.0
 42
30.0
 50
270.0
 43
30.0
  0
INSERT
  8
SUNPOU
  2
ARROWANG
 10
1916.133737
 20
4183.265336
 30
0.0
 41
30.0
 42
30.0
 50
90.0
 43
30.0
  0
LINE
  8
SUNPOU
 10
1766.942071
 20
4206.265336
 30
0.0
 11
1946.133737
 21
4206.265336
 31
0.0
  0
LINE
  8
SUNPOU
 10
1916.133737
 20
4206.265336
 30
0.0
 11
1916.133737
 21
4183.265336
 31
0.0
  0
TEXT
  8
SUNPOU
 10
1871.133737
 20
3168.693907
 30
0.0
 40
60.0
  1
1792
 50
90.0
  7
K
 72
     1
 11
1871.133737
 21
3287.265336
 31
0.0
  0
INSERT
  8
SUNPOU
  2
ARROWANG
 10
1916.133737
 20
4183.265336
 30
0.0
 41
30.0
 42
30.0
 50
90.0
 43
30.0
  0
INSERT
  8
SUNPOU
  2
ARROWANG
 10
1916.133737
 20
2391.265336
 30
0.0
 41
30.0
 42
30.0
 50
270.0
 43
30.0
  0
LINE
  8
SUNPOU
 10
1916.133737
 20
2391.265336
 30
0.0
 11
1916.133737
 21
4183.265336
 31
0.0
  0
LINE
  8
SUNPOU
 10
1801.942071
 20
4183.265336
 30
0.0
 11
1946.133737
 21
4183.265336
 31
0.0
  0
LINE
  8
SUNPOU
 10
1801.942071
 20
2391.265336
 30
0.0
 11
1946.133737
 21
2391.265336
 31
0.0
  0
LINE
  8
HASEN
 10
2329.942071
 20
1902.37481
 30
0.0
 11
2329.942071
 21
1818.581697
 31
0.0
  0
LINE
  8
HASEN
 10
1963.942071
 20
1902.37481
 30
0.0
 11
1963.942071
 21
1818.581697
 31
0.0
  0
ARC
  8
JISSEN
 10
2286.942071
 20
1776.265336
 30
0.0
 40
10.0
 50
270.0
 51
0.0
  0
ARC
  8
JISSEN
 10
2266.942071
 20
1796.265336
 30
0.0
 40
10.0
 50
270.0
 51
0.0
  0
ARC
  8
JISSEN
 10
2026.942071
 20
1796.265336
 30
0.0
 40
10.0
 50
180.0
 51
270.0
  0
ARC
  8
JISSEN
 10
2006.942071
 20
1776.265336
 30
0.0
 40
10.0
 50
180.0
 51
270.0
  0
LINE
  8
JISSEN
 10
2276.942071
 20
1796.265336
 30
0.0
 11
2276.942071
 21
1843.010983
 31
0.0
  0
LINE
  8
JISSEN
 10
2026.942071
 20
1786.265336
 30
0.0
 11
2266.942071
 21
1786.265336
 31
0.0
  0
LINE
  8
JISSEN
 10
2016.942071
 20
1843.010983
 30
0.0
 11
2016.942071
 21
1796.265336
 31
0.0
  0
LINE
  8
JISSEN
 10
2296.942071
 20
1776.265336
 30
0.0
 11
2296.942071
 21
1834.958513
 31
0.0
  0
LINE
  8
JISSEN
 10
2286.942071
 20
1766.265336
 30
0.0
 11
2006.942071
 21
1766.265336
 31
0.0
  0
LINE
  8
JISSEN
 10
1996.942071
 20
1834.958513
 30
0.0
 11
1996.942071
 21
1776.265336
 31
0.0
  0
LINE
  8
ITTEN
 10
2721.942071
 20
1491.265336
 30
0.0
 11
1571.942071
 21
1491.265336
 31
0.0
  0
LINE
  8
ITTEN
 10
2146.942071
 20
2066.265336
 30
0.0
 11
2146.942071
 21
916.265336
 31
0.0
  0
TEXT
  8
SUNPOU
 10
2706.423054
 20
2366.265336
 30
0.0
 40
60.0
  1
100
 50
90.0
  7
K
 72
     1
 11
2706.423054
 21
2456.265336
 31
0.0
  0
INSERT
  8
SUNPOU
  2
ARROWANG
 10
2751.423054
 20
2506.265336
 30
0.0
 41
30.0
 42
30.0
 50
90.0
 43
30.0
  0
INSERT
  8
SUNPOU
  2
ARROWANG
 10
2751.423054
 20
2406.265336
 30
0.0
 41
30.0
 42
30.0
 50
270.0
 43
30.0
  0
LINE
  8
SUNPOU
 10
2751.423054
 20
2406.265336
 30
0.0
 11
2751.423054
 21
2506.265336
 31
0.0
  0
LINE
  8
SUNPOU
 10
2473.173131
 20
2506.265336
 30
0.0
 11
2781.423054
 21
2506.265336
 31
0.0
  0
LINE
  8
SUNPOU
 10
2626.942071
 20
2406.265336
 30
0.0
 11
2781.423054
 21
2406.265336
 31
0.0
  0
CIRCLE
  8
HASEN
 10
2443.173131
 20
2506.265336
 30
0.0
 40
10.0
  0
TEXT
  8
SUNPOU
 10
2754.179424
 20
4066.265336
 30
0.0
 40
60.0
  1
100
 50
90.0
  7
K
 72
     1
 11
2754.179424
 21
4156.265336
 31
0.0
  0
INSERT
  8
SUNPOU
  2
ARROWANG
 10
2799.179424
 20
4206.265336
 30
0.0
 41
30.0
 42
30.0
 50
90.0
 43
30.0
  0
INSERT
  8
SUNPOU
  2
ARROWANG
 10
2799.179424
 20
4106.265336
 30
0.0
 41
30.0
 42
30.0
 50
270.0
 43
30.0
  0
LINE
  8
SUNPOU
 10
2799.179424
 20
4106.265336
 30
0.0
 11
2799.179424
 21
4206.265336
 31
0.0
  0
LINE
  8
SUNPOU
 10
2626.942071
 20
4206.265336
 30
0.0
 11
2829.179424
 21
4206.265336
 31
0.0
  0
LINE
  8
SUNPOU
 10
2473.173131
 20
4106.265336
 30
0.0
 11
2829.179424
 21
4106.265336
 31
0.0
  0
CIRCLE
  8
HASEN
 10
2443.173131
 20
4106.265336
 30
0.0
 40
10.0
  0
POINT
  8
HASEN
 10
2147.649178
 20
1491.972443
 30
0.0
  0
LINE
  8
ITTEN
 10
1899.454698
 20
1243.777963
 30
0.0
 11
1793.38868
 21
1137.711945
 31
0.0
  0
LINE
  8
HASEN
 10
1857.028291
 20
1215.493691
 30
0.0
 11
1821.740301
 21
1180.205702
 31
0.0
  0
LINE
  8
HASEN
 10
1857.028291
 20
1215.493691
 30
0.0
 11
1871.170426
 21
1201.351556
 31
0.0
  0
LINE
  8
HASEN
 10
1835.882437
 20
1166.063566
 30
0.0
 11
1871.170426
 21
1201.351556
 31
0.0
  0
TEXT
  8
SUNPOU
 10
1582.919855
 20
2355.933633
 30
0.0
 40
60.0
  1
15
 50
90.0
  7
K
 72
     1
 11
1582.919855
 21
2417.362205
 31
0.0
  0
LINE
  8
SUNPOU
 10
1627.919855
 20
2391.265336
 30
0.0
 11
1627.919856
 21
2331.265336
 31
0.0
  0
LINE
  8
SUNPOU
 10
1627.919855
 20
2406.265336
 30
0.0
 11
1627.919855
 21
2477.362205
 31
0.0
  0
INSERT
  8
SUNPOU
  2
ARROWANG
 10
1627.919855
 20
2406.265336
 30
0.0
 41
30.0
 42
30.0
 50
270.0
 43
30.0
  0
INSERT
  8
SUNPOU
  2
ARROWANG
 10
1627.919855
 20
2391.265336
 30
0.0
 41
30.0
 42
30.0
 50
90.0
 43
30.0
  0
LINE
  8
SUNPOU
 10
1627.919855
 20
2391.265336
 30
0.0
 11
1627.919855
 21
2406.265336
 31
0.0
  0
LINE
  8
SUNPOU
 10
1666.942071
 20
2406.265336
 30
0.0
 11
1597.919855
 21
2406.265336
 31
0.0
  0
LINE
  8
SUNPOU
 10
1741.942071
 20
2391.265336
 30
0.0
 11
1597.919855
 21
2391.265336
 31
0.0
  0
TEXT
  8
SUNPOU
 10
1432.110266
 20
3187.693907
 30
0.0
 40
60.0
  1
1800
 50
90.0
  7
K
 72
     1
 11
1432.110266
 21
3306.265336
 31
0.0
  0
INSERT
  8
SUNPOU
  2
ARROWANG
 10
1477.110266
 20
4206.265336
 30
0.0
 41
30.0
 42
30.0
 50
90.0
 43
30.0
  0
INSERT
  8
SUNPOU
  2
ARROWANG
 10
1477.110266
 20
2406.265336
 30
0.0
 41
30.0
 42
30.0
 50
270.0
 43
30.0
  0
LINE
  8
SUNPOU
 10
1477.110266
 20
2406.265336
 30
0.0
 11
1477.110266
 21
4206.265336
 31
0.0
  0
LINE
  8
SUNPOU
 10
1666.942071
 20
4206.265336
 30
0.0
 11
1447.110266
 21
4206.265336
 31
0.0
  0
LINE
  8
SUNPOU
 10
1666.942071
 20
2406.265336
 30
0.0
 11
1447.110266
 21
2406.265336
 31
0.0
  0
ARC
  8
HASEN
 10
2146.942071
 20
2686.265336
 30
0.0
 40
183.0
 50
270.0
 51
90.0
  0
ARC
  8
JISSEN
 10
2146.942071
 20
2686.265336
 30
0.0
 40
183.0
 50
90.0
 51
270.0
  0
LINE
  8
ITTEN
 10
1913.942071
 20
2686.265336
 30
0.0
 11
2379.942071
 21
2686.265336
 31
0.0
  0
LINE
  8
ITTEN
 10
1946.942071
 20
3141.265336
 30
0.0
 11
2346.942071
 21
3141.265336
 31
0.0
  0
ARC
  8
JISSEN
 10
2006.942071
 20
3141.265336
 30
0.0
 40
10.0
 50
90.0
 51
270.0
  0
LINE
  8
JISSEN
 10
2006.942071
 20
3151.265336
 30
0.0
 11
2146.942071
 21
3151.265336
 31
0.0
  0
LINE
  8
JISSEN
 10
2006.942071
 20
3131.265336
 30
0.0
 11
2146.942071
 21
3131.265336
 31
0.0
  0
LINE
  8
HASEN
 10
2286.942071
 20
3151.265336
 30
0.0
 11
2146.942071
 21
3151.265336
 31
0.0
  0
LINE
  8
HASEN
 10
2286.942071
 20
3131.265336
 30
0.0
 11
2146.942071
 21
3131.265336
 31
0.0
  0
ARC
  8
HASEN
 10
2286.942071
 20
3141.265336
 30
0.0
 40
10.0
 50
270.0
 51
90.0
  0
LINE
  8
ITTEN
 10
1946.942071
 20
3441.265336
 30
0.0
 11
2346.942071
 21
3441.265336
 31
0.0
  0
ARC
  8
JISSEN
 10
2006.942071
 20
3441.265336
 30
0.0
 40
10.0
 50
90.0
 51
270.0
  0
LINE
  8
JISSEN
 10
2006.942071
 20
3451.265336
 30
0.0
 11
2146.942071
 21
3451.265336
 31
0.0
  0
LINE
  8
JISSEN
 10
2006.942071
 20
3431.265336
 30
0.0
 11
2146.942071
 21
3431.265336
 31
0.0
  0
LINE
  8
HASEN
 10
2286.942071
 20
3451.265336
 30
0.0
 11
2146.942071
 21
3451.265336
 31
0.0
  0
LINE
  8
HASEN
 10
2286.942071
 20
3431.265336
 30
0.0
 11
2146.942071
 21
3431.265336
 31
0.0
  0
ARC
  8
HASEN
 10
2286.942071
 20
3441.265336
 30
0.0
 40
10.0
 50
270.0
 51
90.0
  0
LINE
  8
ITTEN
 10
1946.942071
 20
3741.265336
 30
0.0
 11
2346.942071
 21
3741.265336
 31
0.0
  0
ARC
  8
JISSEN
 10
2006.942071
 20
3741.265336
 30
0.0
 40
10.0
 50
90.0
 51
270.0
  0
LINE
  8
JISSEN
 10
2006.942071
 20
3751.265336
 30
0.0
 11
2146.942071
 21
3751.265336
 31
0.0
  0
LINE
  8
JISSEN
 10
2006.942071
 20
3731.265336
 30
0.0
 11
2146.942071
 21
3731.265336
 31
0.0
  0
LINE
  8
HASEN
 10
2286.942071
 20
3751.265336
 30
0.0
 11
2146.942071
 21
3751.265336
 31
0.0
  0
LINE
  8
HASEN
 10
2286.942071
 20
3731.265336
 30
0.0
 11
2146.942071
 21
3731.265336
 31
0.0
  0
ARC
  8
HASEN
 10
2286.942071
 20
3741.265336
 30
0.0
 40
10.0
 50
270.0
 51
90.0
  0
ARC
  8
HASEN
 10
2286.942071
 20
4041.265336
 30
0.0
 40
10.0
 50
270.0
 51
90.0
  0
LINE
  8
HASEN
 10
2286.942071
 20
4031.265336
 30
0.0
 11
2146.942071
 21
4031.265336
 31
0.0
  0
LINE
  8
HASEN
 10
2286.942071
 20
4051.265336
 30
0.0
 11
2146.942071
 21
4051.265336
 31
0.0
  0
LINE
  8
JISSEN
 10
2006.942071
 20
4031.265336
 30
0.0
 11
2146.942071
 21
4031.265336
 31
0.0
  0
LINE
  8
JISSEN
 10
2006.942071
 20
4051.265336
 30
0.0
 11
2146.942071
 21
4051.265336
 31
0.0
  0
ARC
  8
JISSEN
 10
2006.942071
 20
4041.265336
 30
0.0
 40
10.0
 50
90.0
 51
270.0
  0
LINE
  8
ITTEN
 10
1946.942071
 20
4041.265336
 30
0.0
 11
2346.942071
 21
4041.265336
 31
0.0
  0
LINE
  8
HASEN
 10
2521.942071
 20
4183.265336
 30
0.0
 11
2521.942071
 21
2391.265336
 31
0.0
  0
LINE
  8
JISSEN
 10
2146.942071
 20
2406.265336
 30
0.0
 11
2555.942071
 21
2406.265336
 31
0.0
  0
LINE
  8
JISSEN
 10
2546.942071
 20
2391.265336
 30
0.0
 11
2146.942071
 21
2391.265336
 31
0.0
  0
LINE
  8
JISSEN
 10
2555.942071
 20
2406.265336
 30
0.0
 11
2546.942071
 21
2391.265336
 31
0.0
  0
LINE
  8
JISSEN
 10
2596.942071
 20
2406.265336
 30
0.0
 11
2555.942071
 21
2406.265336
 31
0.0
  0
LINE
  8
JISSEN
 10
1746.942071
 20
2391.265336
 30
0.0
 11
2146.942071
 21
2391.265336
 31
0.0
  0
LINE
  8
JISSEN
 10
1737.942071
 20
2406.265336
 30
0.0
 11
1746.942071
 21
2391.265336
 31
0.0
  0
LINE
  8
JISSEN
 10
1696.942071
 20
2406.265336
 30
0.0
 11
1737.942071
 21
2406.265336
 31
0.0
  0
LINE
  8
HASEN
 10
2549.942071
 20
4183.265336
 30
0.0
 11
2146.942071
 21
4183.265336
 31
0.0
  0
LINE
  8
HASEN
 10
2556.942071
 20
4206.265336
 30
0.0
 11
2549.942071
 21
4183.265336
 31
0.0
  0
LINE
  8
JISSEN
 10
1743.942071
 20
4183.265336
 30
0.0
 11
2146.942071
 21
4183.265336
 31
0.0
  0
LINE
  8
JISSEN
 10
1736.942071
 20
4206.265336
 30
0.0
 11
1743.942071
 21
4183.265336
 31
0.0
  0
LINE
  8
JISSEN
 10
1771.942071
 20
4183.265336
 30
0.0
 11
1771.942071
 21
2391.265336
 31
0.0
  0
LINE
  8
JISSEN
 10
1696.942071
 20
4206.265336
 30
0.0
 11
1696.942071
 21
2406.265336
 31
0.0
  0
LINE
  8
JISSEN
 10
2596.942071
 20
4206.265336
 30
0.0
 11
2596.942071
 21
2406.265336
 31
0.0
  0
LINE
  8
JISSEN
 10
1696.942071
 20
4206.265336
 30
0.0
 11
2146.942071
 21
4206.265336
 31
0.0
  0
LINE
  8
ITTEN
 10
2146.942071
 20
4256.265336
 30
0.0
 11
2146.942071
 21
2341.265336
 31
0.0
  0
TEXT
  8
SAISEN
 10
9295.296659
 20
426.747238
 30
0.0
 40
125.0
  1
1/25
  7
K
  0
POLYLINE
  8
WAKU
 66
     1
 10
0.0
 20
0.0
 30
0.0
 70
     1
  0
VERTEX
  8
WAKU
 10
0.0
 20
0.0
 30
0.0
  0
VERTEX
  8
WAKU
 10
9875.0
 20
0.0
 30
0.0
  0
VERTEX
  8
WAKU
 10
9875.0
 20
6825.0
 30
0.0
  0
VERTEX
  8
WAKU
 10
0.0
 20
6825.0
 30
0.0
  0
SEQEND
  8
WAKU
  0
ENDSEC
  0
EOF
